PrimaNota.ru - самый крупный в мире бесплатный архив песенных текстов, аккордов, табулатур и нот


Kane Roberts - Twisted - таба, видео

Регистрация Запомнить меня
Войти через:  Facebook Google Twitter Vk Yandex Mail.ru

Kane Roberts - Twisted - таба, видео

Печатать
Просмотров: 128
Artist: KANE ROBERTS
Song: TWISTED
Album: Saints & Sinners (1991)

Tabbed By: Rod Zombie (rodzombie_89@hotmail.com)


This is the very first tab of a Kane Roberts's Songs

Tuning: Drop D


INTRO:

|-------------------------------------------------------------|
|-------------------------------------------------------------| Repeat 2 Times
|-0-0-0-0--0-0-3--3-3-3--3-3-----------------5--5-5-5--5^-3---|
|-0-0-0-0--0-0-3--3-3-3--3-3--3--3-3-3--3-3--5--5-5-5--5^-3---|
|-----------------------------3--3-3-3--3-3-------------------|
|-------------------------------------------------------------|

2nd Part
|----------------------------------------------------|
|---------------------------------------3------------|
|-2------------2------------2-----------2---0--------|
|-2------------2------------2-----------0---0--------|
|-0------------0------------0---------------x---3-2--|
|----5h3-5h3-5----5h3-5h3-5---5h3-5h3-5-----3--------|

|----------------------------------------------------|
|---------------------------------------3------------|
|-2------------2------------2-----------2---0--------|
|-2------------2------------2-----------0---0--------|
|-0------------0------------0---------------x--------|
|----5h3-5h3-5----5h3-5h3-5---5h3-5h3-5-----3--------|


VERSE:

|----------------------------------------------------------|
|----------------------------------------------------------|
|-2--2----------2-x-2-2-----------2--2--------2----0--2----| Played 2 Times
|-2--2----------2-x-2-2-----------2--2--------2----0--2----|
|-0--0-0-0-0-0--0-x-0-0-0-0-0-----0--0-0-0-0--0-0--x--0----|
|-----------------------------0-3------------------3-------|
       . . . .          . . . .        . . .    .

PRE-CHORUS:

|----------------------------------------------------------|
|----------------------------------------------------------|
|-7-----7-----7---7-----7-----7---5-----5-----5----3-----3-|
|-7-----7-----7---7-----7-----7---5-----5-----5----3-----3-|
|---5-5---5-5---5---4-4---4-4---4---3-3---3-3---3----3-3---|
|----------------------------------------------------------|
    . .   . .   .   . .   . .   .

CHORUS:
I'm twisted...                                                  twisted of you..
|-------------------------------------|----------------------------------|---------------|
|-------------------------------------|----------------------------------|---------3-----|
|--------------------5-----8---10-----|--------------------5-----8---10--|-2---0---2-----|
|-5-5---2--5-x-5-----5-----8---10-----|-5-5---2--5-x-5-----5-----8---10--|-2---0---0-----|
|-5-5---2--5-x-5-----3-----6----8-----|-5-5---2--5-x-5-----3-----6----8--|-0---x---------|
|-3-3---0--3-x-3----------------------|-3-3---0--3-x-3-------------------|-----3---------|


|--------------------|
|-----------3----[5]-|
|-2----0----2--------|
|-2----0----0--------|
|-0----x-------------|
|------3-------------|
                 P.H

Then Repeat:

VERSE
PRE-CHORUS
CHORUS
SOLO (PLAY THE 2nd PART 2 TIMES)
REPEAT INTRO RIFF
CHORUS
2ND PART

-----------------------------------

THAT'S IT

http://www.kaneroberts.com/
Добавлено: 14.04.2012
Другие материалы по этой песне:
  • Аккорды и текст

Страница создана 14.04.2012
http://primanota.ru/kane-roberts/twisted-chords.htm
Привет, Гость.
Предлагаем пройти революционный курс по гитаре.
Подарок от PrimaNota.Ru, забирай!