PrimaNota.ru - самый крупный в мире бесплатный архив песенных текстов, аккордов, табулатур и нот


Kane Roberts - Too Far Gone - текст песни, таба, видео

Регистрация Запомнить меня
Войти через:  Facebook Google Twitter Vk Yandex Mail.ru

Kane Roberts - Too Far Gone - текст песни, таба, видео

Печатать
Просмотров: 173
Уроки эстрадного вокала в Санкт-Петербурге
Arist: KANE ROBERTS
Song: Too Far Gone
Album: Saints & Sinners

Tabbed by: Rod Zombie (rodzombie_89@hotmail.com)


This is just the intro riff of the song, I will later post de whole song (well, not the 
but the basic thing.


INTRO:

|------------|-----------|----------------|
|------------|-----------|----------------|
|-2-----5~~--|--5-----5--|-2-----5--7-7~--|
|-2-----5~~--|------5----|-2-----5--7-7~--|
|-0-0-0-3~~--|----3------|-0-0-0-3--5-5~--|
|------------|-----------|----------------|
  . . .                    . . .

|------------|-----------|----------------|
|------------|-----------|----------------|
|-2-----5~~--|--5-----5--|-2-----5--7-7~--|
|-2-----5~~--|------5----|-2-----5--7-7~--|
|-0-0-0-3~~--|----3------|-0-0-0-3--5-5~--|
|------------|-----------|----------------|
  . . .                    . . .


As I said, I will tab the whole song, this is just to make time, you know.


Enjoy!
Добавлено: 27.03.2012
Другие материалы по этой песне:
  • Аккорды и текст

Страница создана 27.03.2012
http://primanota.ru/kane-roberts/too-far-gone-chords.htm
Привет, Гость.
Предлагаем пройти революционный курс по гитаре.
Подарок от PrimaNota.Ru, забирай!