PrimaNota.ru - самый крупный в мире бесплатный архив песенных текстов, аккордов, табулатур и нот


Kane Ray - Punahele - таба, видео

Регистрация Запомнить меня
Войти через:  Facebook Google Twitter Vk Yandex Mail.ru

Kane Ray - Punahele - таба, видео

Печатать
Просмотров: 59
Punahele
by Ray Kane
 
Tuning: DGDF#BD    4/4 time
 
h = hammer-on      p = pull-off
roll = quick arpeggio roll     ( ) = harmonics
 
This is a lovely piece to play and not too difficult.
I am sorry that it's a bit long but I didn't want to squash
it together too much (and using repeats would make it a little
confusing).
 
Thanks! (james_calton@yahoo.com)

|---------------0---2---4---2---0---2---0h2p0---1-------------|
|------------1-------------------------------------0----------|
|---------0-------------------------------------------0-------|
|------0------------------------------------------------------|
|-------------------------------------------------------------|
|---0-----------------------------------------------------0---|

|-----------------------------------0---|
|-------------------------------0-------|
|-------1---------0h1-------1-----------|
|-----------0h2-----------------0-------|
|---0-------------------0---------------|
|-----------0---------------------------|

                                         roll
|--------------------------------------------0----|
|------------------------------------0-----1------|
|-------0h1---------0h1-------0h1--------0--------|
|-------------0h2--------------------0------------|
|---0---------------------0-----------------------|
|-------------0-----------------------------------|
 
|-------0h2-------------------0h2-----------0---|
|-------------1-------1-------------1-----------|
|-----------------0---------------------0-------|
|-------------0---------------------0-----------|
|-----------------------------------------------|
|---0---------------------0---------------------|

|-------0h2p0-----------------------------0---|
|---------------1-----------------0-----1-----|
|-------------------0h1-------1-------0-------|
|---------------0-----------------0-----------|
|-------------------------0-------------------|
|---0-----------------------------------------|

|-------0-----------------------------0---|
|-----------0h1-------------------0-------|
|-----------------0h1-------0h1-----------|
|-----------0---------------------0-------|
|-----------------------0-----------------|
|---0-------------------------------------|

|-----0-----5--0h5p0--0--------|-----5--2-----0---(12)-------0-|
|--------0---------------(12)--|-----0--0--0-----------(12)--1-|
|------------------------------|-------------------------------|
|--------0----------------0----|--------0----------------0-----|
|--0---------------0-----------|--0-------------0--------------|
|------------------------------|-------------------------------|

|-------0h2-------0h2p0-------(7)---------0----|
|-------------1---------------------(7)--------|
|----------------------------------------------|
|-------------0----------------------0---------|
|----------------------------------------------|
|---0---------------------0--------------------|

|-------0h2p0-----------------0----------0----|
|---------------1-------------0---(12)---0----|
|-------------------0h1-----------------------|
|---------------0------------------0----------|
|-------------------------0-------------------|
|---0-----------------------------------------|

|-------0h2p0-------------------------0----|
|---------------1-----------------0--------|
|-------------------0h1-------1------------|
|---------------0-----------------0--------|
|-------------------------0----------------|
|---0--------------------------------------|

|-------------------------------------0----|
|---------------------------------0--------|
|-------1---------0h1-------0h1------------|
|-----------0h2-------------------0--------|
|---0-------------------0------------------|
|-----------0------------------------------|

                                        roll
|-------------------------------------------0----|
|-----------------------------------0-----1------|
|-------0h1---------0h1-------0h1-------0--------|
|-------------0h2-------------------0------------|
|---0---------------------0----------------------|
|-------------0----------------------------------|

                    roll                    roll
|-------0h2p0-----------0-------0h2p0-----------0----|
|---------------1-----1-----------------1-----1------|
|-------------------0-----------------------0--------|
|---------------0-----------------------0------------|
|----------------------------------------------------|
|---0-----------------------0------------------------|

|-------0h2p0-----------------0----------0----|
|---------------1-------------0---(12)--------|
|-------------------0h1-----------------------|
|---------------0------------------0----------|
|-------------------------0-------------------|
|---0-----------------------------------------|

|-------0h2p0-------------------------0----|
|---------------1-----------------0--------|
|-------------------0h1-------1------------|
|---------------0-----------------0--------|
|-------------------------0----------------|
|---0--------------------------------------|

|-------0-------2---0-------5---2---0h2p0----|
|-----------0---------------0----------------|
|--------------------------------------------|
|-----------0-------------------0------------|
|---0-------------------0--------------------|
|--------------------------------------------|

|-------0-----------0-------0h5p0---2---0h5p0-----|
|-----------0---1---------------------------------|
|-------------------------------------------------|
|-----------0-----------------------0-------------|
|---0-------------------0-------------------------|
|-------------------------------------------------|

|-------0h2p0-----------0-------0h4p0---2---0h2p0----|
|---------------1------------------------------------|
|-------------------0--------------------------------|
|---------------0-----------------------0------------|
|----------------------------------------------------|
|---0-----------------------0------------------------|

|-------0h2p0-----------------0----------0----|
|---------------1-------------0---(12)---0----|
|-------------------0h1-----------------------|
|---------------0------------------0----------|
|-------------------------0-------------------|
|---0-----------------------------------------|

|-------0h2p0---------------------------|
|---------------1-----------------0-----|
|-------------------0h1-------1---------|
|---------------0-----------------0-----|
|-------------------------0-------------|
|---0-----------------------------------|

|-------0h2p0-------0h2p0-------0h5p0---2---0h5p0----|
|---------------2-----------3------------------------|
|----------------------------------------------------|
|---------------0-----------------------0------------|
|---0-----------------------0------------------------|
|----------------------------------------------------|

|-------0h2p0-------0h2p0-------0h5p0---2---0h5p0----|
|---------------2-----------3------------------------|
|----------------------------------------------------|
|---------------0-----------------------0------------|
|---0-----------------------0------------------------|
|----------------------------------------------------|

|-------0h2p0-----------0-------0h4p0---2---0h2p0----|
|---------------1------------------------------------|
|-------------------0--------------------------------|
|---------------0-----------------------0------------|
|----------------------------------------------------|
|---0-----------------------0------------------------|

|-------0h2p0-----------------0----------0----|
|---------------1-------------0---(12)---0----|
|-------------------0h1-----------------------|
|---------------0------------------0----------|
|-------------------------0-------------------|
|---0-----------------------------------------|

|-------0h2p0-------------------------0----|
|---------------1-----------------0--------|
|-------------------0h1-------1------------|
|---------------0-----------------0--------|
|-------------------------0----------------|
|---0--------------------------------------|

|-------------------------------------0----|
|---------------------------------0--------|
|-------0h1---------0h1-------1------------|
|-------------0h2-----------------0--------|
|---0---------------------0----------------|
|-------------0----------------------------|

                                      roll
|-----------------------------------------0----|
|---------------------------------0-----1------|
|-------1---------0h1-------0h1-------0--------|
|-----------0h2-------------------0------------|
|---0-------------------0----------------------|
|-----------0----------------------------------|

|-------0---------0h2-------4---2---0h2p0----|
|-------0---0h1------------------------------|
|--------------------------------------------|
|-----------0-------------------0------------|
|--------------------------------------------|
|---0-------------------0--------------------|

|-------0h2p0-----------------0----------0----|
|---------------1-------------0---(12)---0----|
|-------------------0h1-----------------------|
|---------------0------------------0----------|
|-------------------------0-------------------|
|---0-----------------------------------------|

|-------0h2p0-------------------------0----|
|---------------1-----------------0--------|
|-------------------0h1-------1------------|
|---------------0-----------------0--------|
|-------------------------0----------------|
|---0--------------------------------------|

|-------0-------2---0-------0----------0-----|
|-----------0---------------0---(12)---0-----|
|--------------------------------------------|
|-----------0--------------------0-----------|
|---0-------------------0--------------------|
|--------------------------------------------|

|-------5---2---0h2p0-------(12)----------0----|
|-------0--------------------------(12)--------|
|----------------------------------------------|
|-----------0-----------------------0----------|
|---0-------------------0----------------------|
|----------------------------------------------|

|-------0h2-------0h2p0-------(7)---------0----|
|-------------1---------------------(7)--------|
|----------------------------------------------|
|-------------0----------------------0---------|
|----------------------------------------------|
|---0---------------------0--------------------|

|-------0h2p0-----------------0----------0----|
|---------------1-------------0---(12)---0----|
|-------------------0h1-----------------------|
|---------------0------------------0----------|
|-------------------------0-------------------|
|---0-----------------------------------------|

|-------0h2p0--------------------------|
|---------------1-----------------0----|
|-------------------0h1-------1--------|
|---------------0-----------------0----|
|-------------------------0------------|
|---0----------------------------------|

|-------0h5p0---2---0h2p0-------0h5p0----2---0h2p0----|
|-----------------------------------------------------|
|-----------------------------------------------------|
|---------------0------------------------0------------|
|---0-----------------------0-------------------------|
|-----------------------------------------------------|

|-------0h2p0-------0h2p0-------0h5p0---2---0h2p0----|
|---------------2------------------------------------|
|----------------------------------------------------|
|---------------0-----------------------0------------|
|---0-----------------------0------------------------|
|----------------------------------------------------|

|-------0h2p0-----------0-------0h4p0---2---0h2p0----|
|---------------1-----1------------------------------|
|-------------------0--------------------------------|
|---------------0-----------------------0------------|
|----------------------------------------------------|
|---0-----------------------0------------------------|

|-------0h2p0-----------------0----------0----|
|---------------1-------------0---(12)---0----|
|-------------------0h1-----------------------|
|---------------0------------------0----------|
|-------------------------0-------------------|
|---0-----------------------------------------|

|-------0h2p0-------------------------0----|
|---------------1-----------------0--------|
|-------------------0h1-------1------------|
|---------------0-----------------0--------|
|-------------------------0----------------|
|---0--------------------------------------|

|-------0----------(12)-------0---------(5)----|
|-------0---(12)--------------0---(5)----------|
|----------------------------------------------|
|------------0---------------------0-----------|
|---0---------------------0--------------------|
|----------------------------------------------|

|-------0----------(12)-------0---------(5)----|
|-------0---(12)--------------0---(5)----------|
|----------------------------------------------|
|------------0---------------------0-----------|
|---0---------------------0--------------------|
|----------------------------------------------|

|-------0h2-------0h2p0-------(7)---------0----|
|-------------1---------------------(7)--------|
|----------------------------------------------|
|-------------0----------------------0---------|
|----------------------------------------------|
|---0---------------------0--------------------|

|-------0h2p0-----------------0----------0----|
|---------------1-------------0---(12)---0----|
|-------------------0h1-----------------------|
|---------------0------------------0----------|
|-------------------------0-------------------|
|---0-----------------------------------------|

|-------0h2p0-------------------------0----|
|---------------1-----------------0--------|
|-------------------0h1-------1------------|
|---------------0-----------------0--------|
|-------------------------0----------------|
|---0--------------------------------------|

|---------------------------------------0----|
|-----------------------------------0--------|
|-------0h1---------0h1-------0h1------------|
|-------------0h2-------------------0--------|
|---0---------------------0------------------|
|-------------0------------------------------|

                                      roll
|-----------------------------------------0----|
|---------------------------------0-----1------|
|-------1---------0h1-------0h1-------0--------|
|-----------0h2-------------------0------------|
|---0-------------------0----------------------|
|-----------0----------------------------------|

                                            roll
|-------0h2p0-------0h2p0-------0h2p0-----------0---|
|---------------1-----------------------1-----1-----|
|-------------------------------------------0-------|
|---------------0-----------------------0-----------|
|---------------------------------------------------|
|---0-----------------------0-----------------------|

|-------0h2p0-----------------0----------0----|
|---------------1-------------0---(12)--------|
|-------------------0h1-----------------------|
|---------------0------------------0----------|
|-------------------------0-------------------|
|---0-----------------------------------------|

|-------0h2p0-------------------------0----|
|---------------1-----------------0--------|
|-------------------0h1-------1------------|
|---------------0-----------------0--------|
|-------------------------0----------------|
|---0--------------------------------------|

|-------0-------2---0-------5---2---0h2p0----|
|-----------0--------------------------------|
|--------------------------------------------|
|-----------0-------------------0------------|
|---0-------------------0--------------------|
|--------------------------------------------|

|-------0---------0h2p0-------0h5p0---2---0h2p0----|
|-----------0h1------------------------------------|
|--------------------------------------------------|
|-----------0-------------------------0------------|
|---0---------------------0------------------------|
|--------------------------------------------------|

|-------0-------4-------------------2---------|
|-----------3-------3-------1---1-------1-----|
|---------------------------------------------|
|-----------0-------------------0-------------|
|---------------------------------------------|
|---0-------------------0---------------------|

|-------0-------------------0----------0----|
|-----------0h1-------------0---(12)---0----|
|-----------------0h1-----------------------|
|-----------0--------------------0----------|
|-----------------------0-------------------|
|---0---------------------------------------|

|-------0h2p0-------------------------0----|
|---------------1-----------------0--------|
|-------------------0h1-------1------------|
|---------------0-----------------0--------|
|-------------------------0----------------|
|---0--------------------------------------|

|-------0-------2---0-------0---------0----|
|-----------0---------------0---(5)--------|
|------------------------------------------|
|-----------0--------------------0---------|
|---0-------------------0------------------|
|------------------------------------------|

|-------5---2---0h2p0-------(5)---------0----|
|---------------------------------(5)--------|
|--------------------------------------------|
|-----------0----------------------0---------|
|---0-------------------0--------------------|
|--------------------------------------------|

|-------0h2p0-------0h2p0-------(7)---------0----|
|---------------1---------------------(7)--------|
|------------------------------------------------|
|---------------0----------------------0---------|
|------------------------------------------------|
|---0-----------------------0--------------------|

|-------0h2p0-----------------0----------0----|
|---------------1-------------0---(12)---0----|
|-------------------0h1-----------------------|
|---------------0------------------0----------|
|-------------------------0-------------------|
|---0-----------------------------------------|

|-------0h2p0----------------------------|
|---------------1-------------------0----|
|-------------------0h1-------0h1--------|
|---------------0-------------------0----|
|-------------------------0--------------|
|---0------------------------------------|

|-------0h2p0-------0h2p0-------0h5p0---2---0h2p0----|
|---------------2------------------------------------|
|----------------------------------------------------|
|---------------0-----------------------0------------|
|---0-----------------------0------------------------|
|----------------------------------------------------|

|-------0h2p0-------0h2p0-------0h5p0---2---0h2p0----|
|---------------2------------------------------------|
|----------------------------------------------------|
|---------------0-----------------------0------------|
|---0-----------------------0------------------------|
|----------------------------------------------------|

|-------0h2p0-----------0-------0h4p0---2---0h2p0----|
|---------------1------------------------------------|
|-------------------0--------------------------------|
|---------------0-----------------------0------------|
|----------------------------------------------------|
|---0-----------------------0------------------------|

                                      roll
|-------0h2p0-----------------------------0----|
|---------------1-----------------0-----1------|
|-------------------0h1-------1-------0--------|
|---------------0-----------------0------------|
|-------------------------0--------------------|
|---0------------------------------------------|

|-------0h2p0-------------------------0----|
|---------------1-----------------0--------|
|-------------------0h1-------1------------|
|---------------0-----------------0--------|
|-------------------------0----------------|
|---0--------------------------------------|

|-------------------------------------0----|
|---------------------------------0--------|
|-------1---------0h1-------0h1------------|
|-----------0h2-------------------0--------|
|---0-------------------0------------------|
|-----------0------------------------------|

                                      roll
|-----------------------------------------0-----|
|---------------------------------0-----1-------|
|-------1---------0h1-------0h1-------0---------|
|-----------0h2-------------------0-------------|
|---0-------------------0-----------------------|
|-----------0-----------------------------------|

|-------0---------0h2-------4---2---0h2p0-----|
|-------0---0h1-------------0---0-------------|
|---------------------------------------------|
|-----------0-------------------0-------------|
|---------------------------------------------|
|---0-------------------0---------------------|

|-------0h2p0-----------------0----------0----|
|---------------1-------------0---(12)---0----|
|-------------------0h1-----------------------|
|---------------0------------------0----------|
|-------------------------0-------------------|
|---0-----------------------------------------|

|-------0h2p0-----------------------------|
|---------------1-------------------0-----|
|-------------------0h1-------0h1---------|
|---------------0-------------------0-----|
|-------------------------0---------------|
|---0-------------------------------------|

|-------0h2p0-------0h2p0-------0h5p0---2---0h2p0-----|
|---------------2-------------------------------------|
|-----------------------------------------------------|
|---------------0-----------------------0-------------|
|---0-----------------------0-------------------------|
|-----------------------------------------------------|

|-------0h5p0---2---0h2p0-------0h5p0---2---0h2p0-----|
|-----------------------------------------------------|
|-----------------------------------------------------|
|---------------0-----------------------0-------------|
|---0-----------------------0-------------------------|
|-----------------------------------------------------|

|---------------4-------------------2---------|
|-------0---3-------3-------0---1-------1-----|
|-------0-------------------0-----------------|
|-----------0-------------------0-------------|
|---------------------------------------------|
|---0-------------------0---------------------|

|-------0-------------------0----------0----|
|-------0---0h1-------------0---(12)---0----|
|-----------------0h1-----------------------|
|-----------0--------------------0----------|
|-----------------------0-------------------|
|---0---------------------------------------|

|-------0h2p0-------------------------0----|
|---------------1-----------------0--------|
|-------------------0h1-------1------------|
|---------------0-----------------0--------|
|-------------------------0----------------|
|---0--------------------------------------|

|-------0----------0-------0---------0-----|
|-------0---(12)-----------0---(5)---------|
|------------------------------------------|
|------------0------------------0----------|
|---0------------------0-------------------|
|------------------------------------------|

|-------0----------(12)-------0---------(5)----|
|-------0---(12)--------------0---(5)----------|
|----------------------------------------------|
|------------0---------------------0-----------|
|---0---------------------0--------------------|
|----------------------------------------------|

|-------0h2-------0h2p0-------(7)---------0----|
|-------------1---------------------(7)--------|
|----------------------------------------------|
|-------------0----------------------0---------|
|----------------------------------------------|
|---0---------------------0--------------------|

|-------0h2p0-----------------0----------0-----|
|---------------1-------------0---(12)---0-----|
|-------------------0h1------------------------|
|---------------0------------------0-----------|
|-------------------------0--------------------|
|---0------------------------------------------|

|-------0h2p0-----------------------------|
|---------------1-------------------0-----|
|-------------------0h1-------0h1---------|
|---------------0-------------------0-----|
|-------------------------0---------------|
|---0-------------------------------------|

|-------0h2p0-------0h2p0-------0h2p0-------0h2p0----|
|---------------2-----------------------2------------|
|----------------------------------------------------|
|---------------0-----------------------0------------|
|---0-----------------------0------------------------|
|----------------------------------------------------|

|-------0h5p0---2---0h2p0-------0h5p0---2---0h2p0----|
|----------------------------------------------------|
|----------------------------------------------------|
|---------------0-----------------------0------------|
|---0-----------------------0------------------------|
|----------------------------------------------------|

                    roll
|-------0h2p0-----------0-------0h4p0---2---0h2p0----|
|---------------1-----1------------------------------|
|-------------------0--------------------------------|
|---------------0-----------------------0------------|
|----------------------------------------------------|
|---0-----------------------0------------------------|

|-------0h2p0-----------------0----------0-----|
|---------------1-----------------(12)---------|
|-------------------0h1------------------------|
|---------------0------------------------------|
|-------------------------0--------------------|
|---0------------------------------------------|

|-------0h2p0-----------------(5)----------|
|---------------1--------------------------|
|-------------------0h1--------------------|
|---------------0--------------------------|
|-------------------------0----------------|
|---0--------------------------------------|

James Calton, Sheffield, England, 2004.

________________________________________________________________________________
     
Добавлено: 11.09.2013
Другие материалы по этой песне:
  • Аккорды и текст

Страница создана 11.09.2013
http://primanota.ru/kane-ray/punahele-chords.htm
Привет, Гость.
Предлагаем пройти революционный курс по гитаре.
Подарок от PrimaNota.Ru, забирай!