PrimaNota.ru - самый крупный в мире бесплатный архив песенных текстов, аккордов, табулатур и нот


Kanaho - Memories - таба, видео

Регистрация Запомнить меня
Войти через:  Facebook Google Twitter Vk Yandex Mail.ru

Kanaho - Memories - таба, видео

Печатать
Просмотров: 79
Memories - Kanaho

Tuning: D A D F# A D

Capo 3

---GUIDE--------------------------------------------------------------------------------------------

(notes in brackets signify can be played at the same time like a chord but my recommendation is to
play them fast individually [arpeggio?] almost like a slow strum from the 6th string to 
the 1st since it'll
sound ALOT better... she does this in recording anyway...)

(Notes or areas with asterisks "*" surrounding them have a corresponding footnote near the top of
the page i.e optional notes to help with form etc.)

- *Times are in reference to her youtube video*

---FOOTNOTES----------------------------------------------------------------------------------------

- 0:28 - *The chord at 0:28 is quite a stretch so you can play the the 9TH FRET of the 6TH STRING in
 place of the 2ND FRET of the 5TH STRING if it makes things any easier*

- 0:44 - *Same story here. Instead of playing the 2ND FRET of the 2ND STRING, you can play the 5TH
FRET of the THIRD STRING ifit makes it easier to reach*

- 0:52 - *9TH FRET of 6TH STRING can replace 2ND FRET of 5TH STRING if easier*

- 1:31 - *You can play on the 2ND FRET FIRST STRING rather than the 7TH FRET 2ND STRING for an
 easier transition but theway would sound abit better IMO cuz it keeps ringing*

- 2:01 - *You know the drill...*

- 2:02 - *It's quite a stretch here so playing the 5TH FRET on the 3RD STRING instead
of the 2ND FRET of the 2ND STRING may prove helpful, althought the original will sound better*

- 2:16 - *see 0:44*

- 2:24 - *Big stretch... yep...*
---TAB-----------------------------------------------------------------------------------------------

 v0:05                       v0:11                  v0:16       v0:20                 v0:25
(4)-----7---7---0---0---2h4-(4)---------0-4h5-7---------4-2-2---4-7---7---0---0-------4--2---7---7-9/7-|
(0)-------0-----2-----0-----(5)---(5)-4----------5-(2)------0-------0-----2-----0-4-5------4---4-------|
(0)-------------------------------(3)--------------(1)-------------------------------------------------|
------0-------0-------------(0)---------------------------------0-------0------------------------------|
--------------------2---------------------------------------0-----------------2-------0----------------|
(0)---------5---------------------(4)---------5----(2)----------------5----------------------4---------|

 v0:28*(see top of page)*
(7)-0--------0---0h2-----|(2)
(0)--5--(0h2)--2---------|(0)
(0)-----(1)--------------|(1)
-------------------------|
(2)----------------------|(0)
*9*-----(2)--------------|

 v0:36                                   v0:44*(see top of page)*      V0:52*(see top of the page)*
-0---0---(2)--5-4-(4)-0-----------------(0)----2------4/5-4------5-----7------0-0-------0----------4-2-|
---0---0-(4)------(0)--------4/5-0------(2)----4---------------0------------7---0-----4----------2-----|
-0-------------------------0----------0-*5*------------------0-------0--------------3----------1-------|
-0-----------------------0----------2--------0-------------0-------2-------------------------0---------|
---------(0)------(2)----------------------------0-----------------------2-----------------------------|
---------------------------------4------(5)---------------0------4------*9*-------4-------2------------|

    v1:01
----0-0-----|(0)
------------|(0)
------------|(0)
------------|
0-----------|
------------|(0)

                                   v1:10                                             V1:22
-------0--------4-2-0-0--------0----------------------2---(0)---------0-5-----------(2)-------0-4-------|
-0-2-4---0-------------------2---2-0---------------0----4-(0)-0-----0---------2-----(2)-----0---------0-|
-------------0-------------1----------0---1-0-(1)-----------------0-----------1-----(1)-------------0---|
------------------------0---------------------(0)--------------------------0-----0-------2--------0-----|
----------------------------------------------------------(2)-----------------------(0)-----------------|
-----------4----------5------------0----------(2)--4--------------------2-----------------------0-------|

                  v1:30*
5-----7-----9-7-----0-*2--|
----0-------0-----0----7--|
--0---------------0-------|
0-------------------------|
----------7-----4---------|
--------4-----------------|

                              v1:36                                  v1:43
-0----0-----0-2-4-5-4-4-4/7---5-4-2-4-------5-----7-----9-7-----9-11-12-----7---9-0--(4h5)-7-7----0-2--|
----0-----0-------------------7-5-4-------0-----0-------0-----0----------------------(0)------------4--|
----------------------------------------0-----0---------------0-----------0----------------------------|
--------------------------------------0-----0---------------------------0------------------------------|
-2--------------------------0-------------------------7-----4-----------------------------------0------|
--------4---------2-----------------0---------------4----------------8?-------8------(0)---------------|

 v1:50          v1:54                                v2:01v2:02**              v2:08
-------------------0------------------0---(7)--9/7-7---4-(5)---4-(2)-----2-----0---0---(2)--5-4-(4)-0--|
(5)-----5---5--(4)---0---(2)-0--(5)-4---0-(7)------------(2)---5-(2)---2---------0---0-(4)------(0)----|
(3)---3--------(0)-----0-(1)----(0)-------(7)------------*5*-----------1-------0-----------------------|
(4)-4------------------------------------------------2-------0-------2---------0-----------------------|
---------------(2)------------------------(4)-------*7*----------(0)-------------------(0)------(2)----|
(0)-------0--------------(2)----(2)----------------4-----(5)-------------------------------------------|

                 v2:16*                                v2:24*                               v2:34
----------------(0)----2---------4h5-4-------5-----7--*2*0-0-------0------------4-2----0-0-(0)--------|
-----4/5-0------(2)----0-------------------0-----------7---0-----4----------2--------------(0)--0-2-4-|
---0----------0-*5*-----------1----------0-------0-------------3----------1---1------------(0)--------|
-0----------2--------0------2----------0-------2------------------------0-----------------------------|
-------------------------0---------------------------2----------------------------0-------------------|
---------4------(5)------------------0-------4---------------4-------2---------------------(0)--------|

                                          V2:46                                      YIOU888888OO
0---------4-2-0-0---------0--------0-------------2---0---------0-5-----------(2)-------0-4--------|
--0---------------------2---2-0------0--------0----4----0----0---------2-----(0)-----0---------0--|
-------0-------------1----------0------0-(1)---------------0-----------1-----(1)-------------0----|
-------------------0---------------------(0)------------------------0-----0-------2--------0------|
-----------------------------------------------------2-----------------------(0)------------------|
----4-----------5-------------0----------(2)--4------------------2-----------------------0--------|

                  v3:02
5-----7-----9-7-----0-*2--|
----0-------0-----0----7--|
--0---------------0-------|
0-------------------------|
----------7-----4---------|
--------4-----------------|

                              v3:08                                  v3:16
-0----0-----0-2-4-5-4-4-4/7---5-4-2-4-------5-----7-----9-7-----9-11-12-----7---9-0--(4h5)-7-7----0-2-|
----0-----0-------------------7-5-4-------0-----0-------0-----0----------------------(0)------------4-|
----------------------------------------0-----0---------------0-----------0---------------------------|
--------------------------------------0-----0---------------------------0-----------------------------|
-2--------------------------0-------------------------7-----4-----------------------------------0-----|
--------4---------2-----------------0---------------4----------------8?-------8------(0)--------------|

                   v3:26                                v3:33
--0---0-------0---------0-------2-0---------0--------------------0-(0)---2-0-----2---------0-------2-0--|
------0-------0---(2)---------------0---4-5-------0-----0------0---(0)---------------(2)----------------|
------------------(1)---------------------------0-------0----0-----------------------(1)----------------|
----0---0---0---0-----0---0---0-------0-------0-------0----------------0-------0---0-----0---0---0------|
------------------------------------2-------2-----------------------------------------------------------|
--4-------4-------(2)-------2-----------------------0------0-------(4)-------4-------(2)-------2--------|

                 v3:45                             v3:51
---------0-----5-4------------4-(7)---0---------5-(5)---4-2-------2-----|(2)
-0---5-4-----2-------0------5---(4)-----0-----2---(2)-----------2-------|(2)
---------------------0----3-----(0)---------------*5*-----------1-------|(1)
---0-------0-------0----------------0-------0---------0-------2---------|
-2----------------------------------------------------------0-----------|(0)
---------5-------0------0-------(0)-------5-------(2)-------------------|


----0-(4)-------5-----7-----9-7-----0-*2*-0----0-----0-2-4-5-4-4-4/7---5-4-2-4-------5-----7-----9-7---|
--0---(0)-----0-----0-------0-----0----7-----0-----0-------------------7-5-4-------0-----0-------0-----|
------(0)---0-----0---------------0----------------------------------------------0-----0---------------|
----------0-----0--------------------------------------------------------------0-----0-----------------|
--------------------------7-----4---------2--------------------------0-------------------------7-----4-|
------(0)---------------4------------------------4---------2-----------------0---------------4---------|

                                                                                                  v4:32
--9-11-12---14-12-----9-7/5-7---5-4-5-2-(0)--(0)---5/7-7----5-4-4-----0-----------0---5/7-7-7---5-4--|
0-------------------------------------4-----------------------------0-------0------------------------|
0---------------------------------------(0)--(5)--------------------0-------0-----5------------------|
----------0---------0---------2---------(0)------0-------2--------0-------0---------0---------2------|
-----------------------------*7*----0-------------------*7*-----2----------------------------*7*-----|
-------8?---------8?--------4----------------(5)-------4----------------0-----0-0-5---------4--------|


-4-------(2)-----0-(4)------5-----7-----9-7-----0-*2--|
-----2---(2)---0---(0)----0-----0-------0-----0----7--|
-----1---(1)-------(0)--0-----0---------------0-------|
---0---0-----0--------0-----0-------------------------|
---------(0)--------------------------7-----4---------|
-2-----------------(0)--------------4-----------------|

 v4:42                              v4:48                                                    v4:59
-0----0-----0-2-4-5-4-4-4/7---5-4-2-4-------5-----7-----9-7-----9-11-12-----7---9-0--(4h5)-7-7--|
----0-----0-------------------7-5-4-------0-----0-------0-----0----------------------(0)--------|
----------------------------------------0-----0---------------0-----------0---------------------|
--------------------------------------0-----0---------------------------0-----------------------|
-2--------------------------0-------------------------7-----4-----------------------------------|
--------4---------2-----------------0---------------4----------------8?-------8------(0)--------|

                            v5:05
---0-2-----------------------------0-(5)--4--2-(0)------4-|
-----4-(5)-----5-(5)---4-5-(2)---2---(7)--5--4-(0)----0---|
-------(3)---3---(3)-------(1)---1-------------(0)--0-----|
-------(4)-4-----(4)-4---------0---------------(0)--------|
-0-----------------------------------(0)------------------|
-------(0)-------(4)-------(2)----------------------------|

---END---------------------------------------------------------------------------------------------

KK Thats it!
Im 99.9999999% sure Ive got 99.9999999% of the right notes and what not.
Leave a comment below if you have any suggestions or fixtures so yeah. Moo. I expect to see covers!
Just plis give me credit for the tab :DD

~ f3erral
Добавлено: 20.12.2015
Другие материалы по этой песне:
  • Аккорды и текст

Страница создана 20.12.2015
http://primanota.ru/kanaho/memories-chords.htm
Привет, Гость.
Предлагаем пройти революционный курс по гитаре.
Подарок от PrimaNota.Ru, забирай!