PrimaNota.ru - самый крупный в мире бесплатный архив песенных текстов, аккордов, табулатур и нот


Kanae Ito - Kimi Ga Ireba - таба, видео

Регистрация Запомнить меня
Войти через:  Facebook Google Twitter Vk Yandex Mail.ru

Kanae Ito - Kimi Ga Ireba - таба, видео

Печатать
Просмотров: 82
Artist: Kanae Ito / 伊藤かな恵
Song: Kimi Ga Ireba / 君がいれば
Tabbed: qyqez
e-mail: qyqez@outlook.com

Tuning: Standard (EADGBe)

***************
~  hold note
v  vibrato
b  bend
/ slide up
\ slide down
x  mute string
***************

Intro
 
(00:00 - 00:16)
e|-----------------------------------------------------------------|
B|-----7-------7-------7-------7-9-----7-------7-------7-------7---|
G|-7-9---9-7-9---9-7-9---9-7-9-----7-9---9-7-9---9-7-9---9-7-9---9-|
D|-----------------------------------------------------------------|
A|-----------------------------------------------------------------|
E|-----------------------------------------------------------------|

(00:16 - 00:20)
e|-----------7-|
B|-----7-----7-|
G|-7-9---9---9-|
D|-------------|
A|-------------|
E|-------------|

(00:20 - 00:29)
e|-------------9-------------------------------9--------12-11----9~-|
B|------9----9---12~-9~---------9~------9----9---12~-9~-------12----|
G|-9-11---11------------11-9-11----9-11---11------------------------|
D|------------------------------------------------------------------|
A|------------------------------------------------------------------|
E|------------------------------------------------------------------|

(00:29 - 0:39)
e|-------------9-------------------------------9--------12-11----9~-|
B|------9----9---12~-9~---------9~------9----9---12~-9~-------9~----|
G|-9-11---11------------11-9-11----9-11---11------------------------|
D|------------------------------------------------------------------|
A|------------------------------------------------------------------|
E|------------------------------------------------------------------|

Verse 1

(00:39 - 00:57)
e|------------------------7--------------------------------7------|
B|---7------7------7--------7------7------7------7~---7~-----7----|
G|-9---9~-9---9~-9---9~-9-----9~-9---9~-9---9~-9----8----9-----9~-|
D|----------------------------------------------------------------|
A|----------------------------------------------------------------|
E|----------------------------------------------------------------|

(00:57 - 01:06)
e|----------------------------------------------------------------------|
B|----------------------------------------------------------------------|
G|-9--9--9-9--9-9-9--9--9--9--11-12--6--6--6-6--6-6-6--5--5--5-5--5-5-5-|
D|-x--x--x-x--x-x-x--x--x--x--x--x---x--x--x-x--x-x-x--x--x--x-x--x-x-x-|
A|-7--7--7-7--7-7-7--7--7--7--9--10--4--4--4-4--4-4-4--3--3--3-3--3-3-3-|
E|----------------------------------------------------------------------|

(01:06 - 01:15)
e|-------------------------------------7-------7-7-7--7-7--7-7-7-7-|
B|---------------------------------7-----7---7-7-7-7--7-7--7-7-7-7-|
G|-6--8--9-9--9--9--9--9-9--9----9---9-----9---9-9-9--8-8--8-8-8-8-|
D|-x--x--x-x--x--x--x--x-x--x--9---------------9-9-9--9-9--9-9-9-9-|
A|-4--6--7-7--7--7--7--7-7--7--------------------------------------|
E|-----------------------------------------------------------------|

Chorus 1

(01:15 - 01:25)
e|--------------------------------------------------------------------------------|
B|--------------------------------------------------------------------------------|
G|-9--9--9-9--9-9-9-9--8-8-8-8----------------9-9-9--7-7-7-7----------------------|
D|-x--x--x-x--x-x-x-x--x-x-x-x--6-6--6-6-6-6--x-x-x--x-x-x-x--7-7-7--7-7--7-7-7-7-|
A|-7--7--7-7--7-7-7-7--6-6-6-6--x-x--x-x-x-x--7-7-7--5-5-5-5--x-x-x--x-x--x-x-x-x-|
E|------------------------------4-4--4-4-4-4------------------5-5-5--5-5--5-5-5-5-|

(01:25 - 01:34)
e|------------------------------------------------------------------------------------------------------------|
B|------------------------------------------------------------------------------------------------------------|
G|-4-4-4--5-5--5-5-5-5--6-6-6--10-10--10-10-10-10--11-11-11--11-11--11-11-11-11--11-11-11--11-11--11-11-11-11-|
D|-x-x-x--x-x--x-x-x-x--x-x-x--x--x---x--x--x--x---x--x--x---x--x---x--x--x--x---x--x--x---x--x---x--x--x--x--|
A|-2-2-2--3-3--3-3-3-3--4-4-4--8--8---8--8--8--8---9--9--9---9--9---9--9--9--9---9--9--9---9--9---9--9--9--9--|
E|------------------------------------------------------------------------------------------------------------|

(01:34 - 01:43)
e|--------------------------------------------------------------------------------|
B|--------------------------------------------------------------------------------|
G|-9--9--9-9--9-9-9-9--8-8-8-8----------------9-9-9--7-7-7-7----------------------|
D|-x--x--x-x--x-x-x-x--x-x-x-x--6-6--6-6-6-6--x-x-x--x-x-x-x--7-7-7--7-7--7-7-7-7-|
A|-7--7--7-7--7-7-7-7--6-6-6-6--x-x--x-x-x-x--7-7-7--5-5-5-5--x-x-x--x-x--x-x-x-x-|
E|------------------------------4-4--4-4-4-4------------------5-5-5--5-5--5-5-5-5-|

(01:43 - 01:52)
e|---------------------------------------------------------------------------------------------------|
B|---------------------------------------------------------------------------------------------------|
G|-4-4-4--5-5--5-5-5--6--8--10--10-10-10--11-11-11--11-11--11-11-11-11--11-11-11--11-11--11-11-11-11-|
D|-x-x-x--x-x--x-x-x--x--x--x---x--x--x---x--x--x---x--x---x--x--x--x---x--x--x---x--x---x--x--x--x--|
A|-2-2-2--3-3--3-3-3--4--6--8---8--8--8---9--9--9---9--9---9--9--9--9---9--9--9---9--9---9--9--9--9--|
E|---------------------------------------------------------------------------------------------------|

(01:52 - 01:56)      (01:56 - 02:05)     
e|------------7---7~-|-------------9-------------------------------9--------12-11----9~-|
B|--------7-----7-7~-|------9----9---12~-9~---------9~------9----9---12~-9~-------9~----|
G|-9----9---9-----9~-|-9-11---11------------11-9-11----9-11---11------------------------|
D|-9--9-----------9~-|------------------------------------------------------------------|
A|-7-----------------|------------------------------------------------------------------|
E|-------------------|------------------------------------------------------------------|

Verse 2

(02:05 - 02:15)
e|-----------------------------------------------------------------------------------------------------------|
B|-12-12--12-12--12-12--12-12-12--12-12--12--12-12--12-12-12--12-12-12--12-12--12-12-12--12-12-12-12-10-9-10-|
G|-x--x---x--x---x--x---x--x--x---x--x---x---x--x---x--x--x---x--x--x---x--x---x--x--x---x--x--x--x--x--x-x--|
D|-9--9---9--9---9--9---9--9--9---9--9---9---9--9---9--9--9---9--9--9---9--9---9--9--9---9--9--9--9--7--6-7--|
A|-----------------------------------------------------------------------------------------------------------|
E|-----------------------------------------------------------------------------------------------------------|

(02:15 - 02:24)
e|-------------------------------------------------------------------------------------------------|
B|-12-12--12-12--12-12--12-12-12--12-12--12--12-12--12-12-12--12-12-12--12-10-9-10-9-9--9-9--9-9-9-|
G|-x--x---x--x---x--x---x--x--x---x--x---x---x--x---x--x--x---x--x--x---x--x--x-x--x-x--x-x--x-x-x-|
D|-9--9---9--9---9--9---9--9--9---9--9---9---9--9---9--9--9---9--9--9---9--7--6-7--6-6--6-6--6-6-6-|
A|-------------------------------------------------------------------------------------------------|
E|-------------------------------------------------------------------------------------------------|

(02:24 - 02:33)
e|----------------------------------------------------------------|
B|----------------------------------------------------------------|
G|-9--9--9-9--9-9--9--9--9-9--9-9--8--8--8-8--8-8--7--7--7-7--7-7-|
D|-x--x--x-x--x-x--x--x--x-x--x-x--x--x--x-x--x-x--x--x--x-x--x-x-|
A|-7--7--7-7--7-7--7--7--7-7--7-7--6--6--6-6--6-6--5--5--5-5--5-5-|
E|----------------------------------------------------------------|

(02:33 - 02:42)
e|-------------------------------------------------------------------------|
B|-------------------------------------------------------------------------|
G|-6--8--9-9--9-9-9--6--8--9-9--9-9-9--8--8--8-8--8-8--9-9-9--8-8--8-8-8-8-|
D|-x--x--x-x--x-x-x--x--x--x-x--x-x-x--x--x--x-x--x-x--x-x-x--x-x--x-x-x-x-|
A|-4--6--7-7--7-7-7--4--6--7-7--7-7-7--6--6--6-6--6-6--7-7-7--6-6--6-6-6-6-|
E|-------------------------------------------------------------------------|

Chorus 2

(02:42 - 02:51)
e|--------------------------------------------------------------------------------|
B|--------------------------------------------------------------------------------|
G|-9--9--9-9--9-9-9-9--8-8-8-8----------------9-9-9--7-7-7-7----------------------|
D|-x--x--x-x--x-x-x-x--x-x-x-x--6-6--6-6-6-6--x-x-x--x-x-x-x--7-7-7--7-7--7-7-7-7-|
A|-7--7--7-7--7-7-7-7--6-6-6-6--x-x--x-x-x-x--7-7-7--5-5-5-5--x-x-x--x-x--x-x-x-x-|
E|------------------------------4-4--4-4-4-4------------------5-5-5--5-5--5-5-5-5-|

(02:51 - 03:01)
e|------------------------------------------------------------------------------------------------------------|
B|------------------------------------------------------------------------------------------------------------|
G|-4-4-4--5-5--5-5-5-5--6-6-6--10-10--10-10-10-10--11-11-11--11-11--11-11-11-11--11-11-11--11-11--11-11-11-11-|
D|-x-x-x--x-x--x-x-x-x--x-x-x--x--x---x--x--x--x---x--x--x---x--x---x--x--x--x---x--x--x---x--x---x--x--x--x--|
A|-2-2-2--3-3--3-3-3-3--4-4-4--8--8---8--8--8--8---9--9--9---9--9---9--9--9--9---9--9--9---9--9---9--9--9--9--|
E|------------------------------------------------------------------------------------------------------------|

(03:01 - 03:10)
e|--------------------------------------------------------------------------------|
B|--------------------------------------------------------------------------------|
G|-9--9--9-9--9-9-9-9--8-8-8-8----------------9-9-9--7-7-7-7----------------------|
D|-x--x--x-x--x-x-x-x--x-x-x-x--6-6--6-6-6-6--x-x-x--x-x-x-x--7-7-7--7-7--7-7-7-7-|
A|-7--7--7-7--7-7-7-7--6-6-6-6--x-x--x-x-x-x--7-7-7--5-5-5-5--x-x-x--x-x--x-x-x-x-|
E|------------------------------4-4--4-4-4-4------------------5-5-5--5-5--5-5-5-5-|

(03:10 - 03:19)
e|---------------------------------------------------------------------------------------------------|
B|---------------------------------------------------------------------------------------------------|
G|-4-4-4--5-5--5-5-5--6--8--10--10-10-10--11-11-11--11-11--11-11-11-11--11-11-11--11-11--11-11-11-11-|
D|-x-x-x--x-x--x-x-x--x--x--x---x--x--x---x--x--x---x--x---x--x--x--x---x--x--x---x--x---x--x--x--x--|
A|-2-2-2--3-3--3-3-3--4--6--8---8--8--8---9--9--9---9--9---9--9--9--9---9--9--9---9--9---9--9--9--9--|
E|---------------------------------------------------------------------------------------------------|

(03:19 - 03:23)
e|------------7---7~-|
B|--------7-----7-7~-|
G|-9----9---9-----9~-|
D|-9--9-----------9~-|
A|-7-----------------|
E|-------------------|

Solo

(03:23 - 03:27)                     
e|-7/12-12-12--12-12-12-12-12-12-12-12-12--11-11-11-|
B|---12-12-12--------------12-12-12-12-12--12-12-12-|
G|---11-11-11--------------11-11-11-11-11--11-11-11-|
D|--------------------------------------------------|
A|--------------------------------------------------|
E|--------------------------------------------------|

(03:27 - 03:33)
e|------------------------------------------------|
B|--------------------------9-10-9--------12------|
G|-11-11-9-9-8-9-11v---9-11--------11-9-8---9-9\6-|
D|------------------------------------------------|
A|------------------------------------------------|
E|------------------------------------------------|

(03:33 - 03:37)
e|---12-12-12--12-12-12-12-12-12-12-11-12-14-12~--12-|
B|-6/12-12-12--12-12-12-12-12-12-12-12-12-14-12~--12-|
G|---11-11-11--11-11-11-11-11-11-11-11-11-13-11~--11-|
D|---------------------------------------------------|
A|---------------------------------------------------|
E|---------------------------------------------------|

(03:37 - 03:42)
e|-11-12-11-------------------------------------------------------|
B|----------12----------------------------------------------------|
G|-------------11-9-8-9-8-9-11------------9-9-11-11b-11b-11-9-11b-|
D|-----------------------------9-9v--9-11-------------------------|
A|----------------------------------------------------------------|
E|----------------------------------------------------------------|

(03:42 - 03:49)
e|-------------11----14b-14b-14-12-14b-12~-|
B|----12----12----12-----------------------|
G|-11----11--------------------------------|
D|-----------------------------------------|
A|-----------------------------------------|
E|-----------------------------------------|

Final Chorus

(03:51 - 03:56)
e|-------------------------------------|
B|-------------------------------------|
G|-9-9-9--7-7-7-7----------------------|
D|-x-x-x--x-x-x-x--7-7-7--7-7--7-7-7-7-|
A|-7-7-7--5-5-5-5--x-x-x--x-x--x-x-x-x-|
E|-----------------5-5-5--5-5--5-5-5-5-|

(03:56 - 04:05)
e|-----------------------------------------------------------------------------------------------------------|
B|-----------------------------------------------------------------------------------------------------------|
G|-4--4--5-5--5-5-5-5--6-6-6--10-10--10-10-10-10--11-11-11--11-11--11-11-11-11--11-11-11--11-11--11-11-11-11-|
D|-x--x--x-x--x-x-x-x--x-x-x--x--x---x--x--x--x---x--x--x---x--x---x--x--x--x---x--x--x---x--x---x--x--x--x--|
A|-2--2--3-3--3-3-3-3--4-4-4--8--8---8--8--8--8---9--9--9---9--9---9--9--9--9---9--9--9---9--9---9--9--9--9--|
E|-----------------------------------------------------------------------------------------------------------|

(04:05 - 04:14)
e|--------------------------------------------------------------------------------|
B|--------------------------------------------------------------------------------|
G|-9--9--9-9--9-9-9-9--8-8-8-8----------------9-9-9--7-7-7-7----------------------|
D|-x--x--x-x--x-x-x-x--x-x-x-x--6-6--6-6-6-6--x-x-x--x-x-x-x--7-7-7--7-7--7-7-7-7-|
A|-7--7--7-7--7-7-7-7--6-6-6-6--x-x--x-x-x-x--7-7-7--5-5-5-5--x-x-x--x-x--x-x-x-x-|
E|------------------------------4-4--4-4-4-4------------------5-5-5--5-5--5-5-5-5-|

(04:14 - 04:23)
e|-----------------------------------------------------------------------------------------------------|
B|-----------------------------------------------------------------------------------------------------|
G|-4--4--4--5-5--5-5-5--6--8--10--10-10-10--11-11-11--11-11--11-11-11-11--11-11-11--11-11--11-11-11-11-|
D|-x--x--x--x-x--x-x-x--x--x--x---x--x--x---x--x--x---x--x---x--x--x--x---x--x--x---x--x---x--x--x--x--|
A|-2--2--2--3-3--3-3-3--4--6--10--8--8--8---9--9--9---9--9---9--9--9--9---9--9--9---9--9---9--9--9--9--|
E|-----------------------------------------------------------------------------------------------------|

(04:23 - 04:27)
e|------------7---7~-|
B|--------7-----7-7~-|
G|-9----9---9-----9~-|
D|-9--9-----------9~-|
A|-7-----------------|
E|-------------------|

(04:27 - 04:36)
e|-------------9-------------------------------9--------12-11----9~-|
B|------9----9---12~-9~---------9~------9----9---12~-9~-------9~----|
G|-9-11---11------------11-9-11----9-11---11------------------------|
D|------------------------------------------------------------------|
A|------------------------------------------------------------------|
E|------------------------------------------------------------------|

(04:36 - 04:54)
e|-----------11-12----10-12-14-12v-----14-12----17-17-16-|
B|--12/14-12-------13---------------12-------12-17-17-17-|
G|----------------------------------------------16-16-16-|
D|-------------------------------------------------------|
A|-------------------------------------------------------|
E|-------------------------------------------------------|
Добавлено: 04.11.2015
Другие материалы по этой песне:
  • Аккорды и текст

Страница создана 04.11.2015
http://primanota.ru/kanae-ito/kimi-ga-ireba-chords.htm
Привет, Гость.
Предлагаем пройти революционный курс по гитаре.
Подарок от PrimaNota.Ru, забирай!