PrimaNota.ru - самый крупный в мире бесплатный архив песенных текстов, аккордов, табулатур и нот


Kampfar - Ravenheart - текст песни, таба, видео

Регистрация Запомнить меня
Войти через:  Facebook Google Twitter Vk Yandex Mail.ru

Kampfar - Ravenheart - текст песни, таба, видео

Печатать
Просмотров: 160
-----------------------------------------------------------------------------
                             KAMPFAR
                         Album: Kvass (2006)
                         Song:  Ravenheart
-----------------------------------------------------------------------------
Tabbed by: dupree79

Tuning: Drop D

h = hammer-on
x = Mute note

Part 1
e|--------|
B|--------| upstroke!
G|--7-----| 12 times
D|--7-----|
A|--0-----|
D|--0-----|

Part 2
e|-------------|                      e|-----|
B|----5h6------|                      B|-----|
G|--7----7-6---| 12 times / end with  G|--7--|
D|--7----------|                      D|--7--|
A|--0----------|                      A|--0--|
D|--0----------|                      D|--0--|

Piano part (not tabbed)

Guitars enter with
Part 3
e|---------------------------------------------------------------------|
B|------------8-------------8--10--11--8--10------------8--------------|
G|--7--9--10-----9--10--10--------------------7--9--10-----9--10--7--6-|
D|---------------------------------------------------------------------|
A|---------------------------------------------------------------------|
D|---------------------------------------------------------------------|

  ----------------------|
  ----------------------|
  --7--6-----6--7--6----| 3 times
  --------7-----------7-|
  ----------------------|
  ----------------------|
 *You can play this with tremolo picking or not / both sounds good.

Part 4
e|---------------------------------------------------------------------|
B|---------------------------------------------------------------------|
G|---------------------------------------------------------------------|
D|---------------------------------------------------------------------|
A|----0--5--7--8--5--10----0--5--7--8--5--10--8----0--5--7--8--5--10---|
D|--0--------------------0-----------------------0---------------------|

  -------------------------|
  -------------------------|  2 times / -tremolo picking
  -------------------------|            -except the low D just once
  -------------------------|
  ----0--5--7--8--7--8--10-|
  --0----------------------|

Part 5
e|---------------------------------|
B|---------------------------------|
G|------7-----7--------------------|  4 times
D|------------------5--8--7--5--8--|
A|---0-----8-----5-----8--7--5--8--|
D|---0-----8-----5-----8--7--5--8--|

Repeat: Part 3
        Part 4
        Part 5

Part 6
e|--------------------------------------------------|
B|--------------------------------------------------|
G|--------------------------------------------------|  4 times
D|--8--7--8--10--8--7--8--8--7--8--10--8--7--5--8---|  tremolo picking
A|--------------------------------------------------|
D|--------------------------------------------------|

Part 7
e|---------------------------------------------------------------|
B|--11--10--11--13---11--10--11--11--10--11--13---11--10--8---11-|
G|--x---x---x----x---x---x---x---x---x---x----x---x---x---x---x--| 2 times
D|--8---7---8---10---8---7---8---8---7---8---10---8---7---5---8--|
A|---------------------------------------------------------------|
D|---------------------------------------------------------------|

 last chord is -----|
               --8--|
               --x--|
               --5--|
               -----|
               -----|

Part 8
e|-----------------|
B|-----------------|
G|--11--12--12--12-| 4 times
D|--x---x---x---x--|
A|--9---10--10--10-|
D|-----------------|

Part 9
e|------------------------------------------------------|
B|------------------------------------------------------|
G|------------------------------------------------------|
D|-----0--5--7--8--5--10--10-----0--5--7--8--5--10--8---|
A|--0--0--5--7--8--5--10--10--0--0--5--7--8--5--10--8---|
D|--0-------------------------0-------------------------|

  ----------------------------------------------------|
  ----------------------------------------------------|
  ----------------------------------------------------|    2 times
  -----0--5--7--8--5--10--10-----0--5--7--8--7--8--10-|
  --0--0--5--7--8--5--10--10--0--0--5--7--8--7--8--10-|
  --0-------------------------0-----------------------|

Repeat: Part 2 / 4 times
        Part 3 / 3 times
        Part 2 / 8 times

end


*my first tab for ultimate guitar...enjoy...
Добавлено: 19.07.2012
Вам также может быть интересно:
Другие материалы по этой песне:
  • Аккорды и текст

Страница создана 19.07.2012
http://primanota.ru/kampfar/ravenheart-chords.htm
Привет, Гость.
Предлагаем пройти революционный курс по гитаре.
Подарок от PrimaNota.Ru, забирай!