PrimaNota.ru - самый крупный в мире бесплатный архив песенных текстов, аккордов, табулатур и нот


Kamikazee - Sound Check - таба, видео

Регистрация Запомнить меня
Войти через:  Facebook Google Twitter Vk Yandex Mail.ru

Kamikazee - Sound Check - таба, видео

Печатать
Просмотров: 79
Tab:Ito ung SoundCheck nila sa Tower Session.
Tabbed By: Arthur James Felipe
Tuning: Standard EADGBe)

E|---------------------------------------|
B|---------------------------------------|
G|-----------------------------9-9--*-*-*|
D|--6--6--6---7--9---*--2------9-9--*-*-*|
A|--6--6--6---7--9---*--2------7-7--*-*-*|
E|--4--4--4---5--7---*--0----------------|

E|---------------------------------------|
B|---------------------------------------|
G|-----------------------------9-9--*-*-*|
D|--6--6--6---7--9---*--2------9-9--*-*-*|
A|--6--6--6---7--9---*--2------7-7--*-*-*|
E|--4--4--4---5--7---*--0----------------|

                        PM PM PM PM PM PM PM
E|-------------------------------------------|
B|-------------------------------------------|
G|-------------------------------------------|
D|--6--6--6---7--9---*--2-2-2-2-2-2-2-2-2-2--|
A|--6--6--6---7--9---*--2-2-2-2-2-2-2-2-2-2--|
E|--4--4--4---5--7---*--0-0-0-0-0-0-0-0-0-0--|

   PM PM   PM     PM     PM PM    PM     PM
E|---------------------------------------------|
B|-------4----7p4----5---------4-----7p4----5--|
G|--4-4----4------4-------4-4-----4-------4----|
D|---------------------------------------------|
A|---------------------------------------------|
E|---------------------------------------------|


E|---------------|
B|---------------|
G|--6--4--2--4---|
D|--6--4--2--4---|
A|--4--2--2--2---|
E|---------------|

E|----------------------------------------------------------------12p9------|
B|---10p9-----12p9----10p9-10p9----12p9--10p9-10p9---12p9---10p9-------12p9-|
G|---------9-------9------------9-------9----------9------9-----------------|
D|--------------------------------------------------------------------------|
A|--------------------------------------------------------------------------|
E|--------------------------------------------------------------------------|

E|----------------|
B|--10p9--12p9--- |
G|----------------|
D|----------------|
A|----------------|
E|----------------|

E|----------------------------------------------------------------12p9------|
B|---10p9-----12p9----10p9-10p9----12p9--10p9-10p9---12p9---10p9-------12p9-|
G|---------9-------9------------9-------9----------9------9-----------------|
D|--------------------------------------------------------------------------|
A|--------------------------------------------------------------------------|
E|--------------------------------------------------------------------------|

E|----------------|
B|--10p9--12p9--- |
G|----------------|
D|----------------|
A|----------------|
E|----------------|


E|-----------------------------------------------------|
B|-----------2-2-2------------------------------2-2-2--|
G|-9-9-9-----2-2-2----9-9-9--4-4-4-4---9-9-9----2-2-2--|
D|-9-9-9-----2-2-2----9-9-9--4-4-4-4---9-9-9----2-2-2--|
A|-7-7-7--------------7-7-7--2-2-2-2---7-7-7-----------|
E|-----------------------------------------------------|

E|--------------------------|
B|--------------------------|
G|--6-6-6-4-4-4-2-2---------|
D|--6-6-6-4-4-4-2-2-6-6-6---|
A|--4-4-4-2-2-2-2-2-6-6-6---|
E|------------------4-4-4---|

E|--------------------------|
B|--------------------------|
G|--6-6-6-4-4-4-2-2---------|
D|--6-6-6-4-4-4-2-2-6-6-6---|
A|--4-4-4-2-2-2-2-2-6-6-6---|
E|------------------4-4-4---|

E|-----------------------------|
B|-----------------------------|
G|--6-6---4-4--2-2-------------|
D|--6-6---4-4--2-2--6-6---6-6--|
A|--4-4---2-2--2-2--6-6---6-6--|
E|------------------4-4---4-4--|

E|-----------------------------|
B|-----------------------------|
G|--6-6---4-4--2-2-------------|
D|--6-6---4-4--2-2--6-6---6-6--|
A|--4-4---2-2--2-2--6-6---6-6--|
E|------------------4-4---4-4--|
  PM PM PM PM
E|-----------------|
B|-----------------|
G|-----------------|
D|--2-2-2-2---2----|
A|--2-2-2-2---2----|
E|--0-0-0-0---0----|

E|---------------------------|
B|---------------------------|
G|---------------------------|
D|--------------2----2-2-----|
A|--------------2----2-2-----|
E|--PICKSLIDE---0----0-0-----|

pasensya kung may mga mali.


I ♥ HG
Добавлено: 25.08.2013
Другие материалы по этой песне:
  • Аккорды и текст

Страница создана 25.08.2013
http://primanota.ru/kamikazee/sound-check-chords.htm
Привет, Гость.
Предлагаем пройти революционный курс по гитаре.
Подарок от PrimaNota.Ru, забирай!