PrimaNota.ru - самый крупный в мире бесплатный архив песенных текстов, аккордов, табулатур и нот


Kamikazee - Paano - таба, видео

Регистрация Запомнить меня
Войти через:  Facebook Google Twitter Vk Yandex Mail.ru

Kamikazee - Paano - таба, видео

Печатать
Просмотров: 59
-------------------------------------------------------------------------------
                             Paano - Kamikazee
-------------------------------------------------------------------------------

Intro:

e|-0---0---0---------------------------------------|
B|-0---0---0---------------------------------------|
G|-6---2---1---6-6--6-6--6-6--6-6------------------|
D|-6---2---2---6-6--6-6--6-6--6-6------------------|
A|-4---0---2---4-4--4-4--4-4--4-4------------------|
E|---------0---------------------------------------|
 {Gtr 1 dito}-{Gtr 1 and 2 sa part na to}

e|------------|
B|------------|
G|------------|
D|--6---2-----| x4 (sa 4th repitition, isang bagsak na lang yung last chord)
A|--4---0---2-|
E|----------0-|
   (4) (4) (8)

Gtr. 2
e|----------------------------------|
B|----------------------------------|
G|--------------6---8---9---11---9--|
D|--6---2-------x---x---x---x----x--|
A|--4---0---2---4---6---7---9----7--|
E|----------0-----------------------|
   (4) (4) (8) (4) (4) (4) (2)  (2)

e|--------7------------------------------------------|
B|--4h5-4---5-4-0-4-5-4-0-4-5-4-0----5-4-0-4-5-4-0---|
G|---------------------------------------------------|
D|---------------------------------------------------|
A|---------------------------------------------------|
E|---------------------------------------------------|

e|--------7------------------|
B|--4h5-4---5-4-0-4-5-4-0-5--|
G|---------------------------|
D|---------------------------|
A|---------------------------|
E|---------------------------|
Добавлено: 12.06.2013
Другие материалы по этой песне:

Страница создана 12.06.2013
http://primanota.ru/kamikazee/paano-chords.htm
Привет, Гость.
Предлагаем пройти революционный курс по гитаре.
Подарок от PrimaNota.Ru, забирай!