PrimaNota.ru - самый крупный в мире бесплатный архив песенных текстов, аккордов, табулатур и нот


Kamikazee - Ikaw Na Naiiba - таба, видео

Регистрация Запомнить меня
Войти через:  Facebook Google Twitter Vk Yandex Mail.ru

Kamikazee - Ikaw Na Naiiba - таба, видео

Печатать
Просмотров: 74
Kamikazee-Ikaw

Long Time Noisy

Made in Lucena
Donated by SHC BSN'10
f_sario@yahoo.com
09283150081


GtrI  ( e b g d a E ) Jomal
GtrII ( e b g d a E ) Led

Intro-
1.
GtrI&II
|--------------------------------------------|
|--------------------------------------------|
|--------------------------------------------|
|-xx-xx-xx-xx-xx-xx-xx-xx-xx-xx-xx-xx-xx-xx--|
|-xx-xx-xx-xx-xx-xx-xx-xx-xx-xx-xx-xx-xx-xx--|
|-xx-xx-xx-xx-xx-xx-xx-xx-xx-xx-xx-xx-xx-xx--|
2.
GtrI
|-------------------------------|
|-------------------------------|
|-------------------------------|
|-------------------------------|
|-------------------------------|
|-0-2h4---4-2-4--0-2h4---4-2-4--|
GtrII
|-------------------------------|
|-------------------------------|
|-------------------------------|
|----------------2-2-2-2-2-2-2--|
|----------------2-2-2-2-2-2-2--|
|----------------0-0-0-0-0-0-0--|
3.
GtrI
|--------------------------------------------------------|
|--------------------------------------------------------|
|-9999-8888-13131313-9-11-13--9999-8888-6666-44-4-4-4----|
|--------------------------------------------------------|
|-7777-6666-11111111-7-9--11--7777-6666-4444-22-2-2-2----|
|--------------------------------------------------------|
GtrII
|--------------------------------------------------------|
|--------------------------------------------------------|
|-9999------6666-----------9999------6666----------------|
|-9999-7777-6666-7--11-9---9999-7777-6666--99x-9x-9x-9x--|
|-7777-7777-4444-7--11-9---7777-7777-4444--99x-9x-9x-9x--|
|------5555------5--9--7--------5555-------77x-7x-7x-7x--|


Verse-
a.
GtrI
|-------------------------------------------------------------------|
|-------------------------------------------------------------------|
|-------------------------------------------------------------------|
|-------------------------------------------------------------------|
|--------7----------------7---------------7---------------7---------|
|-00-7-9---7-9-7---55-7-9---7-9-7--99-7-9---7-9-7--77-7-7----7-9-7--|
  ** * *   * * *   ** * *   * * *  ** * *   * * *

b.
GtrI
|-------------------------------------------------------------------|
|-------------------------------------------------------------------|
|-------------------------------------------------------------------|
|-------------------------------------------------------------------|2x
|--------7----------------7---------------7---------------7--7-7-7--|
|-00-7-9---7-9-7---55-7-9---7-9-7--99-7-9---7-9-7--77-7-9-----------|
  ** * *   * * *   ** * *   * * *  ** * *   * * *  ** * *


GtrII
|-------------------------------------|
|-------------------------------------|
|-------------------------------------|
|-------------------66666666----------|
|-22222222-77777777-44444444-99999999-|
|-00000000-55555555----------77777777-|
  ******** ******** ******** ********
|-------------------------------------|
|-------------------------------------|
|-------------------------------------|
|-------------------66666666----------|
|-22222222-77777777-44444444-99999999-|
|-00000000-55555555----------77777777-|
  ******** ******** ********

Refrain-
GTrI
|-------------------------------------|
|-------------------------------------|
|-99999--99999-----99999---99999------|
|-------------------------------------|
|-77777--77777-----77777---77777------|
|-------------------------------------|
GtrII
|-------------------------------------|
|-------------------------------------|
|-99999------------66666--------------|
|-99999---77777----66666----99999-----|2x
|-77777---77777----44444----99999-----|
|---------55555-------------77777-----|

GtrI
|-------------------------------|
|-------------------------------|
|-------------------------------|
|-------------------------------|
|-------------------------------|
|-0-2h4---4-2-4-----------------|


Chorus-
GtrI
|--------------------------------------------------------|
|--------------------------------------------------------|
|-9999-8888-13131313-9-11-13--9999-8888-6666-4444--------|
|--------------------------------------------------------|
|-7777-6666-11111111-7-9--11--7777-6666-4444-2222--------|
|--------------------------------------------------------|

|----------------------------------------------|
|-9---9--10--12----12--12--9h10p9--9h10p9------|
|---9---9---9--9-----9---9--------9------------|2x
|----------------------------------------------|
|----------------------------------------------|
|----------------------------------------------|

GtrII
|------------------------------------------------|
|------------------------------------------------|
|-9999------6666-----------9999------6666--------|
|-9999-7777-6666-7--11-9---9999-7777-6666-9999---|
|-7777-7777-4444-7--11-9---7777-7777-4444-9999---|
|------5555------5--9--7--------5555------7777---|


|--------------------------------------------------------|
|--------------------------------------------------------|
|-9999------6666-----------9999------6666----------------|
|-9999-7777-6666-7--11-9---9999-7777-6666-777-9x-9x-9x---|
|-7777-7777-4444-7--11-9---7777-7777-4444-777-9x-9x-9x---|
|------5555------5--9--7--------5555------555-7x-7x-7x---|


GtrI
|-------------------------------|
|-------------------------------|
|-------------------------------|
|-------------------------------|
|-------------------------6-6---|
|-0-2h4---4-2-4-00-2-4-0--4-4---|


Do verse b.
do Refrain
Do Chorus-

GtrI
|----------------------------------------------------------------|
|-101010---------------------------------------------------------|
|-9-9-9--9~-------99999999-999999999999999--9999999999999999-----|
|--------9~--/---------------------------------------------------|
|--------7~--/----77777777-777777777777777--7777777777777777-----|
|------------/---------------------------------------------------|


GtrII
|----------------------------------------------------------|
|----------------------------------------------------------|
|-----------------99999999---------------------------------|
|-9-9-9--2~--/---------------------------------------------|
|-9-9-9--2~--/----77777777-222222222222222-----------------|
|-7-7-7--0~--/-------------000000000000000-----------------|
                           ***************

then
---------------|
---------------|
---------------|
----99---------|
-77-77-99-66-7-|
-55----77-44-5-|
Solo-
GtrI 2x
|---------------------------------|----------------------------------------|
|-0-7-9-0-5-7-0-4-5-0-7-9-0-12-10-|-0-14-12-0-12-10-0-9h10-9-0-5-0-4h5-4p0-|
|---------------------------------|----------------------------------------|
|---------------------------------|----------------------------------------|
|---------------------------------|----------------------------------------|
|---------------------------------|----------------------------------------|

|---------------------------------|----------------------------------------|
|-0-7-9-0-5-7-0-4-5-0-7-9-0-12-10-|-0-10-9-0-7-5-0-14-12-0-10-9-0-7h9-7p5--|
|---------------------------------|----------------------------------------|
|---------------------------------|----------------------------------------|
|---------------------------------|----------------------------------------|
|---------------------------------|----------------------------------------|

GtrII
|-----------------------------------------------------------|
|-----------------------------------------------------------|
|----------66----66-----------------------------------------|
|-22222222-66-77-66-77-9-7---22222222-77-22-99-22-7-2-------|
|-22222222-44-77-44-77-9-7---22222222-77-22-99-22-7-2-------|
|-00000000----55----55-7-5---00000000-55-00-77-00-5-0-------|

|---------------------------|
|---------------------------|
|----------66----66---------|
|-22222222-66-77-66-77-9-9--|
|-22222222-44-77-44-77-9-9--|
|-00000000----55----55-7-7--|


then
GtrI
|----------------------------------------------------|
|-1414-1212-99-77-7h9p7----1414-1212-99-77-7h9p7-----|
|-1313-1313-99-88-8-----9--1313-1313-99-88-8-----9---|
|----------------------------------------------------|
|----------------------------------------------------|
|----------------------------------------------------|

|------------------1212h14-1212h14-1212h14-1212h12--12121212--|
|-1414-1212-99-77--1212----1212----1212----1212-----12121212--|
|-1313-1313-99-88---------------------------------------------|
|-------------------------------------------------------------|
|-------------------------------------------------------------|
|-------------------------------------------------------------|
GtrII
|------------------------------------------|
|------------------------------------------|
|------------------------------------------|
|---1111-99-66----------1111-99-66---------|
|---1111-99-66----------1111-99-66---------|
|---9-9--77-44-2-4-2-0--9-9--77-44-2-4-2-0-|

|---------------------------------------|
|---------------------------------------|
|---------------------------------------|
|-1111-99-66---22---22-22-22-22-2-2-----|
|-1111-99-66---22---22-22-22-22-2-2-----|
|-9-9--77-44---00---00-00-00-00-0-0-----|


then
GtrI
|-------------------------------------------------------------------|
|-------------------------------------------------------------------|
|-------------------------------------------------------------------|
|-------------------------------------------------------------------|
|--------7----------------7---------------7---------------7---------|
|-00-7-9---7-9-7---00-7-9---7-9-7--00--7-9--7-9-7--00-7-9----7-9-7--|
  ** * *   * * *   ** * *   * * *  ** * *   * * *  ** * *    * * *

|-------------------------------------------------------------------|
|-------------------------------------------------------------------|
|-------------------------------------------------------------------|
|-------------------------------------------------------------------|
|--------7----------------7---------------7-------------------------|
|-00-7-9---7-9-7---00-7-9---7-9-7--00--7-9--7-9-7--00-7-9-/---------|
  ** * *   * * *   ** * *   * * *  ** * *   * * *  ** * *

Bridge-

GtrI
|-------------------------------------|
|-------------------------------------|
|-------------------------------------|
|-------------------------------------|
|-22222222-77777777-447477-7---7-77-7-|
|-00000000-55555555----------77-7-----|
  ******** ******** ****** * ****** *


GtrII
|-------------------------------------------------------------------------|
|-------------------------------------------------------------------------|
|-------------------------------------------------------------------------|
|-99999999-77777777-66666666----------99999999-77777777-66666666----------|
|----------------------------99999999---------------------------99999999--|
|-------------------------------------------------------------------------|
  ******** ******** ******** ********


GtrI
|-------------------------------------|
|-------------------------------------|
|-------------------------------------|
|-------------------------------------|
|-22222222-77777777-447477-7---7-77-7-|
|-00000000-55555555----------77-7-----|
  ******** ******** ****** * ****** *

|-------------------------------------|
|-------------------------------------|
|-------------------------------------|
|-------------------66666666----------|
|-22222222-77777777-44444444-99999999-|
|-00000000-55555555----------77777777-|
  ******** ********
GtrII
|-------------------------------------|
|-------------------------------------|
|-------------------------------------|
|-------------------66666666----------|
|-22222222-77777777-44444444-99999999-|
|-00000000-55555555----------77777777-|
  ******** ******** ******** ********
|-------------------------------------|
|-------------------------------------|
|-------------------------------------|
|-------------------66666666----------|
|-22222222-77777777-44444444-99999999-|
|-00000000-55555555----------77777777-|
  ******** ********

then
GtrI
|-------------------------------------|
|-------------------------------------|
|-9999-------------6666---------------|
|-9999----7777-----6666-----9999------|2x
|-7777----7777-----4444-----9999------|
|---------5555--------------7777------|

|-------------------------------------|
|-9999--13131313--14141414-16161616---|
|-------------------------------------|2x
|-7777--11111111--12121212-14141414---|
|-------------------------------------|

GtrII
|-------------------------------------|
|-------------------------------------|
|-9999-------------6666---------------|
|-9999----7777-----6666-----9999------|4x
|-7777----7777-----4444-----9999------|
|---------5555--------------7777------|


Do Chorus-

GtrI

|-------------------------------------------------------|
|-99999-1010101010-1212121212--10-xx-10-xx-10-xx--------|
|-99999-9-9-9-9-9--9-9-9-9-9---9--xx-9--xx--9-xx--------|
|---------------------------------xx----xx---xx---------|
|-77777-7-7-7-7-7--------------7--xx-7--xx-7-xx---------|
|-------------------------------------------------------|


|-------------------------------------------------------|
|-99999-1010101010-1212121212--12-12-12-12-12-12--------|
|-99999-9-9-9-9-9--9-9-9-9-9---9--9--9--9--9--9---------|
|-------------------------------------------------------|
|-77777-7-7-7-7-7---------------------------------------|
|-------------------------------------------------------|


GtrII

|-------------------------------------|
|-------------------------------------|
|-99999------------66666--------------|
|-99999---77777----66666----9xx9xx9xx-|
|-77777---77777----44444----9xx9xx9xx-|
|---------55555-------------700700700-|
                             ** ** **
|-------------------------------------|
|-------------------------------------|
|-99999------------66666--------------|
|-99999---77777----66666----999999999-|
|-77777---77777----44444----999999999-|
|---------55555-------------777777777-|
Добавлено: 25.11.2013
Другие материалы по этой песне:
  • Аккорды и текст

Страница создана 25.11.2013
http://primanota.ru/kamikazee/ikaw-na-naiiba-chords.htm
Привет, Гость.
Предлагаем пройти революционный курс по гитаре.
Подарок от PrimaNota.Ru, забирай!