PrimaNota.ru - самый крупный в мире бесплатный архив песенных текстов, аккордов, табулатур и нот


Kamelot - Wings Of Despair - текст песни, таба, видео

Регистрация Запомнить меня
Войти через:  Facebook Google Twitter Vk Yandex Mail.ru

Kamelot - Wings Of Despair - текст песни, таба, видео

Печатать
Просмотров: 172
Wings Of Despair
Kamelot
Track number 9 from Karma (2001)
Tabbed By: Mariano Arnaiz
Anything to : marianoarnaiz@hotmail.com
Tunning: 1/2 step down (EbAbDbGbBbeb)

Intro
eb|-------------------------------|-------------------------------|---------------------------------------------|
Bb|-------------------------------|-------------------------------|---------------------------------------------|
Gb|-------------------------------|-------------------------------|---------------------------------------------| x3
Db|--0-0-7-0-(0)-8-0-(0)-7-3.5.7--|--0-0-7-0-(0)-8-0-(0)-7-3.5.7--|--0-0-7-0-(0)-8-0-(0)-7/.12-10-8h10p8-7-8-0--|
Ab|-------------------------------|-------------------------------|---------------------------------------------|
Eb|-------------------------------|-------------------------------|---------------------------------------------|

eb|-----|
Bb|-----|
Gb|--5--|
Db|--5--|
Ab|--3--|
Eb|-----|

Verse 1

eb|--------------------------|------------------------------|
Bb|--------------------------|------------------------------|
Gb|--7-----------------------|--10-------------5------------|
Db|--7-----------------------|--10-------------5------------|
Ab|--5--5-5-5-5-5-5-5-5-5-5--|--8--------------3------------|
Eb|--------------------------|------------------------------|

eb|--------------------------|-------------------------------|
Bb|--------------------------|-------------------------------|
Gb|--7-----------------------|----------------5--------------|
Db|--7-----------------------|--3-------------5--------------|
Ab|--5--5-5-5-5-5-5-5-5-5-5--|--1-------------3-5-7-5-3-1-0--|
Eb|--------------------------|-------------------------------|

Verse 2

eb|--------------------------|-------------------------------|
Bb|--------------------------|-------------------------------|
Gb|--7-----------------------|--10-------------5-------------|
Db|--7-----------------------|--10-------------5-------------|
Ab|--5--5-5-5-5-5-5-5-5-5-5--|--8---8-8-8-8-8--3--3-3-3-3-3--|
Eb|--------------------------|-------------------------------|

eb|--------------------------|------------------------------|
Bb|--------------------------|------------------------------|
Gb|--7-----------------------|----------------5-------------|
Db|--7-----------------------|--3-------------5-------------|
Ab|--5--5-5-5-5-5-5-5-5-5-5--|--1--1-1-1-1-1--3--3-3-3-3-3--|
Eb|--------------------------|------------------------------|


Pre-Chorus. Strum Once Use a lot of Wah-Wah(*^*^*^)

eb|-------------------|-----------------|-------------------|-------------------|
Bb|---10*^*^*--11\10--|--10*^*^*--8\10--|---10*^*^*--11\10--|--10*^*^*--11--13--|
Gb|---9*^*^*^--10\9---|--9*^*^*^--7\9---|---9*^*^*^--10\9---|--9*^*^*^--10--12--|
Db|---7*^*^*^--8.\7---|--7*^*^*^--5\7---|---7*^*^*^--8.\7---|--7*^*^*^--8---10--|
Ab|---7*^*^*^--8.\7---|--7*^*^*^--5\7---|---7*^*^*^--8.\7---|--7*^*^*^--8---10--|
Eb|-------------------|-----------------|-------------------|-------------------|

Chorus
eb|---------------------------|----------------------------|
Bb|---------------------------|----------------------------|
Gb|---7-----3-----5-----------|-------3-----5--------------|
Db|---7-----3-----5-----------|-------3-----5--------------|
Ab|---5-----1-----3---8v--7v--|--5v---1-----3---0--1v--3v--|
Eb|---------------------------|----------------------------|

eb|---------------------------|---------------------------------|
Bb|---------------------------|---------------------------------|
Gb|---7-----3-----5-----------|-------3-----5-------------------|
Db|---7-----3-----5-----------|-------3-----5-------------------|
Ab|---5-----1-----3---8v--7v--|--5v---1-----3---0-1-3-5-3-1/5v--|
Eb|---------------------------|---------------------------------|

Pre-Verse
eb|-------------------------------|-------------------------------|---------------------------------------------|
Bb|-------------------------------|-------------------------------|---------------------------------------------|
Gb|-------------------------------|-------------------------------|---------------------------------------------| x
Db|--0-0-7-0-(0)-8-0-(0)-7-3.5.7--|--0-0-7-0-(0)-8-0-(0)-7-3.5.7--|--0-0-7-0-(0)-8-0-(0)-7/.12-10-8h10p8-7-8-0--|
Ab|-------------------------------|-------------------------------|---------------------------------------------|
Eb|-------------------------------|-------------------------------|---------------------------------------------|

Verse 3

eb|--------------------------|-------------------------------|
Bb|--------------------------|-------------------------------|
Gb|--7-----------------------|--10-------------5-------------|
Db|--7-----------------------|--10-------------5-------------|
Ab|--5--5-5-5-5-5-5-5-5-5-5--|--8---8-8-8-8-8--3--3-3-3-3-3--|
Eb|--------------------------|-------------------------------|

eb|--------------------------|------------------------------|
Bb|--------------------------|------------------------------|
Gb|--7-----------------------|----------------5-------------|
Db|--7-----------------------|--3-------------5-------------|
Ab|--5--5-5-5-5-5-5-5-5-5-5--|--1--1-1-1-1-1--3--3-3-3-3-3--|
Eb|--------------------------|------------------------------|

Pre-Chorus. Strum Once Use a lot of Wah-Wah(*^*^*^)

eb|-------------------|-----------------|-------------------|-------------------|
Bb|---10*^*^*--11\10--|--10*^*^*--8\10--|---10*^*^*--11\10--|--10*^*^*--11--13--|
Gb|---9*^*^*^--10\9---|--9*^*^*^--7\9---|---9*^*^*^--10\9---|--9*^*^*^--10--12--|
Db|---7*^*^*^--8.\7---|--7*^*^*^--5\7---|---7*^*^*^--8.\7---|--7*^*^*^--8---10--|
Ab|---7*^*^*^--8.\7---|--7*^*^*^--5\7---|---7*^*^*^--8.\7---|--7*^*^*^--8---10--|
Eb|-------------------|-----------------|-------------------|-------------------|

Chorus
eb|---------------------------|----------------------------|
Bb|---------------------------|----------------------------|
Gb|---7-----3-----5-----------|-------3-----5--------------|
Db|---7-----3-----5-----------|-------3-----5--------------|
Ab|---5-----1-----3---8v--7v--|--5v---1-----3---0--1v--3v--|
Eb|---------------------------|----------------------------|

eb|---------------------------|---------------------------------|
Bb|---------------------------|---------------------------------|
Gb|---7-----3-----5-----------|-------3-----5-------------------|
Db|---7-----3-----5-----------|-------3-----5-------------------|
Ab|---5-----1-----3---8v--7v--|--5v---1-----3---0-1-3-5-3-1/5v--|
Eb|---------------------------|---------------------------------|

Interlude (INSTRUMENTAL NO GUITAR)(Very short)

Bridge

eb|-------------------|-----------------------|
Bb|-------------------|----------------3-3-3--|
Gb|--7------5------3--|--2-------------2-2-2--|
Db|--7------5------3--|--2-------------0-0-0--|
Ab|--5------3------1--|--0-0-0-0-0-0---0-0-0--|
Eb|-------------------|-----------------------|


Guitar Solo
eb|                     BAD NEWS!!!!!!          	|
Bb|							|
Gb|		  I GOT NO IDEA WHAT TO PLAY		|
Db|		 IS TOO LONG TO FIGURE IT OUT		|
Ab|		            SORRY 			|
Eb|		 I MIGHT SUBMIT IT LATER		|


Pre-Verse
eb|-------------------------------|-------------------------------|---------------------------------------------|
Bb|-------------------------------|-------------------------------|---------------------------------------------|
Gb|-------------------------------|-------------------------------|---------------------------------------------| x2
Db|--0-0-7-0-(0)-8-0-(0)-7-3.5.7--|--0-0-7-0-(0)-8-0-(0)-7-3.5.7--|--0-0-7-0-(0)-8-0-(0)-7/.12-10-8h10p8-7-8-0--|
Ab|-------------------------------|-------------------------------|---------------------------------------------|
Eb|-------------------------------|-------------------------------|---------------------------------------------|

eb|-----|
Bb|-----|
Gb|--5--|
Db|--5--|
Ab|--3--|
Eb|-----|

Verse 4 

eb|--------------------------|-------------------------------|
Bb|--------------------------|-------------------------------|
Gb|--7-----------------------|--10-------------5-------------|
Db|--7-----------------------|--10-------------5-------------|
Ab|--5--5-5-5-5-5-5-5-5-5-5--|--8---8-8-8-8-8--3--3-3-3-3-3--|
Eb|--------------------------|-------------------------------|

eb|--------------------------|------------------------------|
Bb|--------------------------|------------------------------|
Gb|--7-----------------------|----------------5-------------|
Db|--7-----------------------|--3-------------5-------------|
Ab|--5--5-5-5-5-5-5-5-5-5-5--|--1--1-1-1-1-1--3--3-3-3-3-3--|
Eb|--------------------------|------------------------------|

Pre-Chorus. Strum Once Use a lot of Wah-Wah(*^*^*^)

eb|-------------------|-----------------|-------------------|-------------------|
Bb|---10*^*^*--11\10--|--10*^*^*--8\10--|---10*^*^*--11\10--|--10*^*^*--11--13--|
Gb|---9*^*^*^--10\9---|--9*^*^*^--7\9---|---9*^*^*^--10\9---|--9*^*^*^--10--12--|
Db|---7*^*^*^--8.\7---|--7*^*^*^--5\7---|---7*^*^*^--8.\7---|--7*^*^*^--8---10--|
Ab|---7*^*^*^--8.\7---|--7*^*^*^--5\7---|---7*^*^*^--8.\7---|--7*^*^*^--8---10--|
Eb|-------------------|-----------------|-------------------|-------------------|

Chorus
eb|---------------------------|----------------------------|
Bb|---------------------------|----------------------------|
Gb|---7-----3-----5-----------|-------3-----5--------------|
Db|---7-----3-----5-----------|-------3-----5--------------|
Ab|---5-----1-----3---8v--7v--|--5v---1-----3---0--1v--3v--|
Eb|---------------------------|----------------------------|

eb|---------------------------|-----------------------------------|
Bb|---------------------------|-----------------------------------|
Gb|---7-----3-----5-----------|-------3-----5---------------------|
Db|---7-----3-----5-----------|-------3-----5---------------------|
Ab|---5-----1-----3---8v--7v--|--5v---1-----3---0-1-3-5-3-1/(5v)--|
Eb|---------------------------|-----------------------------------|

eb|---------------------------|----------------------------|
Bb|---------------------------|----------------------------|
Gb|---7-----3-----5-----------|-------3-----5--------------|
Db|---7-----3-----5-----------|-------3-----5--------------|
Ab|---5-----1-----3---8v--7v--|--5v---1-----3---0--1v--3v--|
Eb|---------------------------|----------------------------|

eb|---------------------------|-----------------------------------------------|
Bb|---------------------------|-----------------------------------------------|
Gb|---7-----3-----5-----------|-------3-----5---------------------------------|
Db|---7-----3-----5-----------|-------3-----5---------------------------------|
Ab|---5-----1-----3---8v--7v--|--5v---1-----3---0-1-3-5-3-1-0-1-3-5-3-1/(5v)--|
Eb|---------------------------|-----------------------------------------------|

Outro
eb|-------------------------------|-------------------------------|---------------------------------------------|
Bb|-------------------------------|-------------------------------|---------------------------------------------|
Gb|-------------------------------|-------------------------------|---------------------------------------------| 
Db|--0-0-7-0-(0)-8-0-(0)-7-3.5.7--|--0-0-7-0-(0)-8-0-(0)-7-3.5.7--|--0-0-7-0-(0)-8-0-(0)-7/.12-10-8h10p8-7-8-0--|
Ab|-------------------------------|-------------------------------|---------------------------------------------|
Eb|-------------------------------|-------------------------------|---------------------------------------------|

eb|-------------------------------|-------------------------------|-----------------------------------------|
Bb|-------------------------------|-------------------------------|-----------------------------------------|
Gb|-------------------------------|-------------------------------|-----------------------------------------| 
Db|--0-0-7-0-(0)-8-0-(0)-7-3.5.7--|--0-0-7-0-(0)-8-0-(0)-7-3.5.7--|--/.12-10h12p10-10-8h10p8-7.8p7-8-0-0-0--|
Ab|-------------------------------|-------------------------------|-----------------------------------------|
Eb|-------------------------------|-------------------------------|-----------------------------------------|
Добавлено: 03.03.2012
Другие материалы по этой песне:

Страница создана 03.03.2012
http://primanota.ru/kamelot/wings-of-despair-chords.htm
Привет, Гость.
Предлагаем пройти революционный курс по гитаре.
Подарок от PrimaNota.Ru, забирай!