PrimaNota.ru - самый крупный в мире бесплатный архив песенных текстов, аккордов, табулатур и нот


Kamelot - Blcher - таба, видео

Регистрация Запомнить меня
Войти через:  Facebook Google Twitter Vk Yandex Mail.ru

Kamelot - Blcher - таба, видео

Печатать
Просмотров: 153
Уроки эстрадного вокала в Санкт-Петербурге
-------------------------------------------------------------------------------
                             BLÜCHER - Kamelot
-------------------------------------------------------------------------------
Tabbed by: Shalinar
Email: joeboxer12@gmail.com

Tuning: Standard

One of my favorite Kamelot songs of all time!
This is the easiest way that i found to play it. Feel free to move it to a different 
if its easier for you :D

Guitar 1 (0:27) (This is played fairly fast)
e|-------------|
B|-------------|
G|-------------|
D|-------------|
A|-------1-----|
E|-1-2-4---4-2-|
pm............
(x7), then:
e|-------------|
B|-------------|
G|-------------|
D|-------------|
A|-1-----1-----|
E|---4-2---4-2-|
pm............

Guitar 1 repeats that whole phrase again.

Then:
Guitar 2 (lead) (0:41)
e|---------------------------------------|
B|----------------------------------14~--|
G|-----15--13-------------15--13-15------|
D|-13---------16------13-----------------|
A|---------------16~---------------------|
E|---------------------------------------|

(0:48)
e|-----18-16-----------------------21-21b22-20---|
B|--16-------19------16--16-18-19----------------|
G|--------------18~------------------------------|
D|-----------------------------------------------|
A|-----------------------------------------------|
E|-----------------------------------------------|

Guitar 1 (0:54)
e|----------------------------------------------------------------------|
B|----------------------------------------------------------------------|
G|----------------------------------------------------------------------|
D|-3-3-333-3333----3-3-333-33333-3-4----3-3-333-3----3-3-333-33333------|
A|-1-1-111-1111----1-1-111-11111-1-2----1-1-111-1----1-1-111-11111------|
E|-1-1-111-1111----1-1-111-11111-1-2----1-1-111-1----1-1-111-11111------|
pm . . ... ....    . . ... ..... .      . . ... .    . . ... .....

| /  slide up
| \  slide down
| h  hammer-on
| p  pull-off
| ~  vibrato
| +  harmonic
| x  Mute note
===============================================================================
Добавлено: 05.03.2012
Другие материалы по этой песне:

Страница создана 05.03.2012
http://primanota.ru/kamelot/blcher-chords.htm
Привет, Гость.
Предлагаем пройти революционный курс по гитаре.
Подарок от PrimaNota.Ru, забирай!