PrimaNota.ru - самый крупный в мире бесплатный архив песенных текстов, аккордов, табулатур и нот


Kamaitachi - He No He No Moheji - бас-таба, видео

Регистрация Запомнить меня
Войти через:  Facebook Google Twitter Vk Yandex Mail.ru

Kamaitachi - He No He No Moheji - бас-таба, видео

Печатать
Просмотров: 94
-------------------------------|
-------------------------------|
Kamaitachi - he no he no moheji
-------------------------------|
-------------------------------|



Tempo = 120
Bass

Legend
L - tied note
x - dead note
h - hammer on/pull off
b - bend
s - slide
~ - vibrato
g - ghost note
> - accentuated note
t - trill
M - palm mute
. - staccato
P - popping (bass)
S - slapping (bass)
+ - tapping
W - wide vibrato
< - fade in
w - whammy bar
= - tremolo picking
v - brush up
^ - brush down
V - pick stroke up
n - pick stroke down


G |-------------------------------------|------------------------------------|
D |-------------------------------------|------------------------------------|
A |--2----------------------------------|--2---------------------------------|
E |-------------------------------------|------------------------------------|


-------------------------------------|-------------------------------------|
-------------------------------------|-------------------------------------|
--2----------------------------------|--2----------------------------------|
-------------------------------------|-------------------------------------|


-------------------------------------|-------------------------------------|
-------------------------------------|--------4----------------------------|
--2-----2-----2--4--2--4-------------|--4-----------2--4--2--4-------------|
-------------------------------------|-------------------------------------|


-------------------------------------|-------------------------------------|
-------------------------------------|--------4----------------------------|
--2-----2-----2--4--2--4-------------|--4-----------2--4--2--4-------------|
-------------------------------------|-------------------------------------|


-------------------------------------|-------------------------------------|
-------------------------------------|--------4----------------------------|
--2-----2-----2--4--2--4-------------|--4-----------2--4--2--4-------------|
-------------------------------------|-------------------------------------|


-------------------------------------|----------------|
-------------------------------------|----------------|
--2----------------------------------|----------------|
-------------------------------------|----------------|


-------------------------------------|-------------------------------------|
-------------------------------------|-------------------------------------|
--2--2--2--2--5--5--5--5-------------|--7--7--7--7--4--4--4--4-------------|
-------------------------------------|-------------------------------------|


-------------------------------------|-------------------------------------|
-------------------------------------|-------------------------------------|
--2--2--2--2--5--5--5--5-------------|--7-----5-----4-----5----------------|
-------------------------------------|-------------------------------------|


-------------------------------------|-------------------------------------|
-------------------------------------|-------------------------------------|
--2--2--2--2--5--5--5--5-------------|--7--7--7--7--4--4--4--4-------------|
-------------------------------------|-------------------------------------|


-------------------------------------|-------------------------------------|
-------------------------------------|-------------------------------------|
--2--2--2--2--5--5--5--5-------------|--7-----5-----4-----5----------------|
-------------------------------------|-------------------------------------|


-------------------------------------|-------------------------------------|
-------------------------------------|--------4----------------------------|
--2-----2-----2--4--2--4-------------|--4-----------2--4--2--4-------------|
-------------------------------------|-------------------------------------|


-------------------------------------|-------------------------------------|
-------------------------------------|--------4----------------------------|
--2-----2-----2--4--2--4-------------|--4-----------2--4--2--4-------------|
-------------------------------------|-------------------------------------|


-------------------------------------|-------------------------------------|
-------------------------------------|--------4----------------------------|
--2-----2-----2--4--2--4-------------|--4-----------2--4--2--4-------------|
-------------------------------------|-------------------------------------|


-------------------------------------|-------------------------------------|
-------------------------------------|--------4----------------------------|
--2-----2-----2--4--2--4-------------|--4-----------2--4--2--4-------------|
-------------------------------------|-------------------------------------|


-------------------------------------|-------------------------------------|
-------------------------------------|-------------------------------------|
--2--2--2--2--5--5--5--5-------------|--7--7--7--7--4--4--4--4-------------|
-------------------------------------|-------------------------------------|


-------------------------------------|-------------------------------------|
-------------------------------------|-------------------------------------|
--2--2--2--2--5--5--5--5-------------|--7-----5-----4-----5----------------|
-------------------------------------|-------------------------------------|


-------------------------------------|-------------------------------------|
-------------------------------------|-------------------------------------|
--2--2--2--2--5--5--5--5-------------|--7--7--7--7--4--4--4--4-------------|
-------------------------------------|-------------------------------------|


-------------------------------------|-------------------------------------|
-------------------------------------|-------------------------------------|
--2--2--2--2--5--5--5--5-------------|--7-----5-----4-----5----------------|
-------------------------------------|-------------------------------------|


-------------------------------------|-------------------------------------|
-------------------------------------|--------------2--0-------------------|
--2--2--2--2--4--4--4--4-------------|--5--5--5--5--------4--2-------------|
-------------------------------------|-------------------------------------|


-------------------------------------|-------------------------------------|
-------------------------------------|-------------------------------------|
--2--2--2--2--5--5--5--5-------------|--7--5--4-----5--5--5--5-------------|
-------------------------------------|-------------------------------------|


-------------------------------------|-------------------------------------|
-------------------------------------|--------------2--0-------------------|
--2--2--2--2--4--4--4--4-------------|--5--5--5--5--------4--2-------------|
-------------------------------------|-------------------------------------|


-------------------------------------|-------------------------------------|
-------------------------------------|-------------------------------------|
--2--2--2--2--5--5--5--5-------------|--7--5--4-----5--5--5--5-------------|
-------------------------------------|-------------------------------------|


-------------------------------------|----------------|
-------------------------------------|----------------|
--2----------------------------------|----------------|
-------------------------------------|----------------|


-------------------------------------|-------------------------------------|
-------------------------------------|--------------2--0-------------------|
--2--2--2--2--4--4--4--4-------------|--5--5--5--5--------4--2-------------|
-------------------------------------|-------------------------------------|


-------------------------------------|-------------------------------------|
-------------------------------------|-------------------------------------|
--2--2--2--2--5--5--5--5-------------|--7--5--4-----5--5--5--5-------------|
-------------------------------------|-------------------------------------|


-------------------------------------|-------------------------------------|
-------------------------------------|--------------2--0-------------------|
--2--2--2--2--4--4--4--4-------------|--5--5--5--5--------4--2-------------|
-------------------------------------|-------------------------------------|


-------------------------------------|-------------------------------------|
-------------------------------------|-------------------------------------|
--2--2--2--2--5--5--5--5-------------|--7--5--4-----5--5--5--5-------------|
-------------------------------------|-------------------------------------|


-------------------------------------|-------------------------------------|
-------------------------------------|--------4----------------------------|
--2-----2-----2--4--2--4-------------|--4-----------2--4--2--4-------------|
-------------------------------------|-------------------------------------|


-------------------------------------|-------------------------------------|
-------------------------------------|--------4----------------------------|
--2-----2-----2--4--2--4-------------|--4-----------2--4--2--4-------------|
-------------------------------------|-------------------------------------|


-------------------------------------|-------------------------------------|
-------------------------------------|--------4----------------------------|
--2-----2-----2--4--2--4-------------|--4-----------2--4--2--4-------------|
-------------------------------------|-------------------------------------|


-------------------------------------|----------------|
-------------------------------------|----------------|
--2----------------------------------|----------------|
-------------------------------------|----------------|


-------------------------------------|-------------------------------------|
-------------------------------------|-------------------------------------|
--2--2--2--2--5--5--5--5-------------|--7--7--7--7--4--4--4--4-------------|
-------------------------------------|-------------------------------------|


-------------------------------------|-------------------------------------|
-------------------------------------|-------------------------------------|
--2--2--2--2--5--5--5--5-------------|--7-----5-----4-----5----------------|
-------------------------------------|-------------------------------------|


-------------------------------------|-------------------------------------|
-------------------------------------|-------------------------------------|
--2--2--2--2--5--5--5--5-------------|--7--7--7--7--4--4--4--4-------------|
-------------------------------------|-------------------------------------|


-------------------------------------|-------------------------------------|
-------------------------------------|-------------------------------------|
--2--2--2--2--5--5--5--5-------------|--7-----5-----4-----5----------------|
-------------------------------------|-------------------------------------|


-------------------------------------|-------------------------------------|
-------------------------------------|-------------------------------------|
--2--2--2--2--5--5--5--5-------------|--7--7--7--7--4--4--4--4-------------|
-------------------------------------|-------------------------------------|


-------------------------------------|-------------------------------------|
-------------------------------------|-------------------------------------|
--2--2--2--2--5--5--5--5-------------|--7-----5-----4-----5----------------|
-------------------------------------|-------------------------------------|


-------------------------------------|-------------------------------------|
-------------------------------------|-------------------------------------|
--2--2--2--2--5--5--5--5-------------|--7--7--7--7--4--4--4--4-------------|
-------------------------------------|-------------------------------------|


-------------------------------------|-------------------------------------|
-------------------------------------|-------------------------------------|
--2--2--2--2--5--5--5--5-------------|--7-----5-----4-----5----------------|
-------------------------------------|-------------------------------------|


-------------------------------------|-------------------------------------|
-------------------------------------|--------------2--0-------------------|
--2--2--2--2--4--4--4--4-------------|--5--5--5--5--------4--2-------------|
-------------------------------------|-------------------------------------|


-------------------------------------|-------------------------------------|
-------------------------------------|-------------------------------------|
--2--2--2--2--5--5--5--5-------------|--7--5--4-----5--5--5--5-------------|
-------------------------------------|-------------------------------------|


-------------------------------------|-------------------------------------|
-------------------------------------|--------------2--0-------------------|
--2--2--2--2--4--4--4--4-------------|--5--5--5--5--------4--2-------------|
-------------------------------------|-------------------------------------|


-------------------------------------|-------------------------------------|
-------------------------------------|-------------------------------------|
--2--2--2--2--5--5--5--5-------------|--7--5--4-----5--5--5--5-------------|
-------------------------------------|-------------------------------------|


-------------------------------------|-------------------------------------|
-------------------------------------|--------------2--0-------------------|
--2--2--2--2--4--4--4--4-------------|--5--5--5--5--------4--2-------------|
-------------------------------------|-------------------------------------|


-------------------------------------|-------------------------------------|
-------------------------------------|-------------------------------------|
--2--2--2--2--5--5--5--5-------------|--7--5--4-----5--5--5--5-------------|
-------------------------------------|-------------------------------------|


-------------------------------------|-------------------------------------|
-------------------------------------|--------------2--0-------------------|
--2--2--2--2--4--4--4--4-------------|--5--5--5--5--------4--2-------------|
-------------------------------------|-------------------------------------|


-------------------------------------|-------------------------------------|
-------------------------------------|-------------------------------------|
--2--2--2--2--5--5--5--5-------------|--7--5--4-----5--5--5--5-------------|
-------------------------------------|-------------------------------------|


-------------------------------------|-------------------------------------|
-------------------------------------|-------------------------------------|
--2-----2-----2----------------------|--2-----2-----2----------------------|
-------------------------------------|-------------------------------------|


-------------------------------------|-------------------------------------|
-------------------------------------|-------------------------------------|
--2-----2-----2----------------------|--2-----2-----2----------------------|
-------------------------------------|-------------------------------------|


----------------|----------------|----------------|----------------|
----------------|----------------|----------------|----------------|
--2-------------|--2-------------|--2-------------|--2-------------|
----------------|----------------|----------------|----------------|


----------------|-------------------------------------|
----------------|-------------------------------------|
--2-------------|--2--2--2--2--------2----------------|
----------------|-------------------------------------|


-------------------------------------||
-------------------------------------||
-------------------------------------||
-------------------------------------||

http://www.youtube.com/watch?v=rrMBe7E9TOE
Добавлено: 07.05.2012
Другие материалы по этой песне:

Страница создана 08.04.2012
http://primanota.ru/kamaitachi/he-no-he-no-moheji-chords.htm
Привет, Гость.
Предлагаем пройти революционный курс по гитаре.
Подарок от PrimaNota.Ru, забирай!