PrimaNota.ru - самый крупный в мире бесплатный архив песенных текстов, аккордов, табулатур и нот


Kalus - Never Heard - таба, видео

Регистрация Запомнить меня
Войти через:  Facebook Google Twitter Vk Yandex Mail.ru

Kalus - Never Heard - таба, видео

Печатать
Просмотров: 98
song name ( kalus neverheard )
Plain Text Version 

By: TABKalus .....Never Heard
                     From the Album   The 13th Step
                     

Transcribed by: TAB
For Questions, Comments, or Corrections contact
Tim B at Tab1977@verizon.net



..  - palm mute          /  - slide up to
 \  - slide down to      ~  - vibrato
 h  - hammer on          b  - bend
 p  - pull off            Suffixes for bend
                          ph - pinch harmonic
                           f - full bend    h - half bend
*  - see comment           r - release      t - tap bend
X  - percussion mute       ~ - vibrato 
@  - slight palm mute     () - ghost note, sustained note

Tune Gtr to E standard tuning

Intro Clean w/ gain and bass

              E          C               D            AM
 E|------------------------------------2------2----------------|
 B|----------0---------0--------------3------3------0-0h1-1----|
 G|---------0--0------0--0h3-3-------2--0h2-2------2-------2---|
 D|--------2----2----2--------2-----0-------------2---------2--|
 A|-------2------2--3----------3-----------------0-------------|
 E|-0-0-0------------------------------------------------------|


        E          C              AM
 E|-----------------------------------------------------------|
 B|-----0--------0-------------0-0h1-1------------------------|
 G|---0--0------0-0h3-3-------2-------2-----0--0--------------|
 D|--2----2----2-------2-----2---------2---0--0--------2------|
 A|-2------2--3---------3---0--------------------------2------|
 E|---------------------------------------3--3--3-2-3--0------|
                                          *  *
                                       hold / play 2 opens

 Riff a    E         C         G         AM
  |-------------------------3-3-3-3---0-0-0-0---2-----|
  |-----------------------------------1-1-1-1---------|
  |-----0-0-0-0---3-3-3-3-------------2-2-2-2---------|
  |-----2-2-2-2---2-2-2-2---2-2-2-2---2-2-2-2---------| Play 4 times
  |-----2-2-2-2---3-3-3-3---3-3-3-3-------------------|
  |-----0-0-0-0---------------------------------------|
       Strum down then up on all

 Solo w/distortion
  |14-12-------------------------------------------------------------|
  |---------13-12----13hp12----13hp12----13hp12--13hp12----13hp12----|
  |------14-------14--------14--------14----------------14-----------|
  |------------------------------------------------------------------|
  |------------------------------------------------------------------|
  |------------------------------------------------------------------|


  |------------------------|
  |------------------------|
  |-------14-------12------|
  |---------12-14----14----|
  |------------------------|
  |------------------------|


                   bend                              ~ ~ ~ ~ ~ ~ 
  |--------------------------------------------------------------|
  |-15-17--15-17--17f--17f--17f--17f--15-15hp17--15--------------|
  |--------------------------------------------------------------|
  |--------------------------------------------------------------|
  |--------------------------------------------------------------|
  |--------------------------------------------------------------|
                                                   

  |-----15------15------15------15------------15----------|
  |17-15--17--15--17--15--17--15--17--15-17--15-17-15-15--|
  |-------------------------------------------------------|
  |-------------------------------------------------------|
  |-------------------------------------------------------|
  |-------------------------------------------------------|
 

  |---------------------------|
  |--13-13--12--10-10--8-8----|
  |---------------------------|
  |---------------------------|
  |---------------------------|
  |---------------------------|


                     ~ ~ ~ ~ ~ ~ ~ ~           ~ ~ ~ ~ ~ ~ ~ 
  |--------------------------------------------------------------|
  |--------------------------------------------------------------|
  |---------12-14--------------------------12--------------------|
  |--12-14---------12-------------------14----12-----------------|
  |--------------------------------------------------------------|
  |--------------------------------------------------------------|

                                       ~ ~ ~ ~ ~      ~ ~ ~ ~  
  |-------------------------------------------------------------|
  |-------------------------------------------------------------|
  |-------------------------12hp14----12------------------------|
  |-------------------12-14--------14------------14-12----------|
  |----------12-14-15-------------------------------------------|
  |-12-14-15----------------------------------------------------|
Добавлено: 27.04.2012
Вам также может быть интересно:
Другие материалы по этой песне:
  • Аккорды и текст

Страница создана 27.04.2012
http://primanota.ru/kalus/never-heard-chords.htm
Привет, Гость.
Предлагаем пройти революционный курс по гитаре.
Подарок от PrimaNota.Ru, забирай!