PrimaNota.ru - самый крупный в мире бесплатный архив песенных текстов, аккордов, табулатур и нот


Kalmah - Windlake Tale - бас-таба, видео

Регистрация Запомнить меня
Войти через:  Facebook Google Twitter Vk Yandex Mail.ru

Kalmah - Windlake Tale - бас-таба, видео

Печатать
Просмотров: 77
Авторы музыки: Antti Kokko
Авторы текста: Pekka Kokko
Hi. This is my first tab, so don't judge too hard on it. I've tried to make it as clear 
as possible, but you should learn the song with it playing on the background.

I am not sure of how many strikes I play on the fastest parts (it is so fast I cannot 
count them so well) so they might be inaccurate, but play according to the song.

Tuning is Drop D, but half steps down on every string. I also play this song on a 5 
stringer but you don't need the lowest string for this one.

F#|---------------------------------------------------------------|
C#|---------------------------------------------------------------|
G#|------------------5h6-3h5--------------------------6p5-5p3-----|
C#|-6p5--/1-3333-6p5---------6p5-6p5-6p5-3333-6p5-6p5-------------|

F#|---------------------------------------------------------------|
C#|---------------------------------------------------------------|
G#|-------------------------------5p666-3p555---------------------|
C#|-6555-6555-6555-3333-6555-6555-------------6555-6555-6555-3333-|

F#|---------------------------------------------------------------|
C#|---------------------------------------------------------------|
G#|-----------6555-5333-5-------3/5--3-0-3/8-5----3-5/1--3-0-8-3--|
C#|-6555-6555-----------------------------------------------------|

  Now comes the really, REALLY fast parts. Remember to use a pick.
  The amount of strikes might be inaccurate so listen to the song!!

F#||--------------------------------------------------------------|
C#||--------------------------------------------------------------|
G#||555555855555755555555553-5555558555557-0-3-8-5555558555557555-|
C#||--------------------------------------------------------------|

F#|---------------------------------------------------------------|
C#|---------------------------------------------------------------|
G#|-55555553-555555855555-7-5------X2-----------------------------|
C#|---------------------------7-5---------------------------------|

F#|---------------------------------------------------------------|
C#|---------------------------5/7-5-------------------------------|
G#|-333333733333333333733333-5-----8-7-3333337333333333333733333--|
C#|---------------------------------------------------------------|

F#|---------------------------|-----------------------------------|
C#|---------------------------|-----------2-3-2-------------------|
G#|-5----7-5-3-3-0-3/7-5-5-5-5|--0-3-5-3-5-----3-3-3---0-3-5-3-5--|
C#|---------------------------|6---------------------6------------|

F#|---------------------------------------------------------------|
C#|-3-5-3---------------------------------------------------------|
G#|-------5-5-5--X3-----------------------------------------------|
C#|---------------------------------------------------------------|


F#|------------------------|--------------------------------------|
C#|-------------2-3-2------|--------------------------------------|
G#|---0-3-5-3-5------3-3-3-|55555555-33333333-------------------X2|
C#|-6----------------------|------------------5555-000000000000---|

F#|----------------------------------------5----------------------|
C#|------------------0-2-3-------7-----------5-------0-2-3--------|
G#|-5-7-8-0----3---3-------3---5---7-8-3-------3---3-------3------|
C#|--------------5-----------------------5-------5----------------|

I will do the rest of the song later on, but give feedback if this was any good at all 
and every advice on how to make it better is helpful :)
Добавлено: 22.09.2013
Вам также может быть интересно:
Другие материалы по этой песне:

Страница создана 21.07.2013
http://primanota.ru/kalmah/windlake-tale-chords.htm
Привет, Гость.
Предлагаем пройти революционный курс по гитаре.
Подарок от PrimaNota.Ru, забирай!