PrimaNota.ru - самый крупный в мире бесплатный архив песенных текстов, аккордов, табулатур и нот


Kalmah - Kill The Idealist - текст песни, таба, видео

Регистрация Запомнить меня
Войти через:  Facebook Google Twitter Vk Yandex Mail.ru

Kalmah - Kill The Idealist - текст песни, таба, видео

Печатать
Просмотров: 121
greetings from India :-) 
intro: plucking 
      fm shape
e|--------------
b|-1-----1------1------1-------2------1-----2----------------------
g|---1------1------1------1-------1------1-----1---------------------------
d|------3------3------3------3-------3-----3------3-----------
a|----------------------------------------------------------
e|----------------------------------------------------------


e|--------------
b|-----------------------------------------------------------
g|--3-----3-----3------3-----3------6p5p3------------------------------------
d|-----5-----5-----5------5-----5-----------------------
a|--------6-----6-----6-----6------6------------------------
e|----------------------------------------------------------

repeat
intro background 
e|--------------
b|-----------------------------------------------------------
g|------------------------------------------------------------------
d|--x-x-x--3----------------------------------------------
a|--x-x-x--3--------------------------------------------------
e|--x-x-x--1---------------------------------------------

part1
e|-------------------8-----8-----------------
b|-------------9-9----11----11--9p8 ----------------------------------
g|---10-10 -------------------------------------------------
d|------------------------------------------------------
a|----------------------------------------------------------
e|----------------------------------------------------------

e|-------------------8-----8-----------------
b|-------------9-9----11----11--9-11---------------------------
g|---10-10 -------------------------------
d|------------------------------------------------------
a|----------------------------------------------------------
e|----------------------------------------------------------

part2:
e|----------8-8 ------8-8---------9-9---9-8-------------8--------
b|--9-9 ---------9-9 ----11-11 ------------11-9-11---------------
g|------------------------------------------------------------------
d|------------------------------------------------------
a|----------------------------------------------------------
e|----------------------------------------------------------

e|--------8-8----8-8----------9-9---8-----------------------------
b|--9-9-----9-9------11-11----------11-9-8--------------------------
g|------------------------------------------------------------------
d|------------------------------------------------------
a|----------------------------------------------------------
e|----------------------------------------------------------

part3: 
e|--------------------------------------------------------8-8--8-----------------
b|-s9-9--9p8------8*^---s11-11-11p9p8----------11-9----
g|------------------10-----------------------------------------------
d|------------------------------------------------------
a|----------------------------------------------------------
e|----------------------------------------------------------

e|-9-9--9-8----8*^--8-----------------------------------------------------------
b|--------------11---------11-9---11-11---11p9p8-------------
g|------------------------------------------------------------------
d|------------------------------------------------------
a|--------------------------------------------------------
e|-----------------------------------------------------

e|-----------------------------------------------------------
b|--9-9--9p8--------------------------
g|------------------10------------------------------------------------
d|------------------------------------------------------
a|--------------------------------------------------------
e|----------------------------------------------------------

part4
A)
e|--------------8---------------------------------8---------------------------
b|-----------------11--9---11p8---------------11---9h11p8^^----
g|--s10~~---------------------------s10~-------------------------------
d|---------------------------------------------------------------
a|---------------------------------------------------------
e|----------------------------------------------------------

B)
e|-s13--16-15--16s18--16-15--------------------------------------
b|--------------------------------
g|------------------------------------------------------------------
d|------------------------------------------------------
a|--------------------------------------------------------
e|----------------------------------------------------------

e|-s13--16-15--16s18--16----------------------------------
b|--------------------------------
g|------------------------------------------------------------------
d|-----------------------------------------------------
a|--------------------------------------------------------
e|----------------------------------------------------------

solo
e|-s13^13^--16p15p13---16p15p13--------------------
b|--------------------------------
g|------------------------------------------------------------------
d|------------------------------------------------------
a|--------------------------------------------------------
e|----------------------------------------------------------

e|----13^-------------------------------------------------------
b|------------14-13-11--s9-11-13--11-9-8------------------
g|------------------------------------------------------------------
d|------------------------------------------------------
a|--------------------------------------------------------
e|----------------------------------------------------------

e|-----------------------------------------------------------
b|--8s9s8---8s11s8--8s13s11s9s8s6------------
g|------------------------------------------------------------------
d|------------------------------------------------------
a|-------------------------------------------------------
e|----------------------------------------------------------

e|---8-6----------------------------------------6---------6------6-8----6-8
b|-6-----9-8-6--6-8-9--6-8-9--6-8-9--6-8-9----8-9----8-9-------
g|---------------  9---------9------------------------------------------
d|------------------------------------------------------
a|--------------------------------------------------------
e|----------------------------------------------------------

e|----6-8-9--6-8-9--8-9-11--8-9-11--s13^13^----------------
b|--9--------9----------------------
g|------------------------------------------------------------------
d|------------------------------------------------------
a|--------------------------------------------------------
e|---------------------------------------------------------

e|-16p15p13--16p15p13----13^13^-------------------------------
b|--------------------------------
g|------------------------------------------------------------------
d|------------------------------------------------------
a|--------------------------------------------------------
e|----------------------------------------------------------

e|--9--p8-9p8-9p8-9p8-9p8-9p8-------------------------------------
b|--------------------------------
g|------------------------------------------------------------------
d|------------------------------------------------------
a|--------------------------------------------------------
e|----------------------------------------------------------

e|--8-p6-8p6--8p6--8p6-8p6-8p6-----------------------------
b|--------------------------------
g|------------------------------------------------------------------
d|------------------------------------------------------
a|--------------------------------------------------------
e|----------------------------------------------------------

e|-s13^13^---16p15p13--16p15p13--s13^13^---------------
b|--------------------------------
g|------------------------------------------------------------------
d|------------------------------------------------------
a|--------------------------------------------------------
e|----------------------------------------------------------

e|--9--p8-9p8-9p8-9p8-9p8-9p8-------------------------------------
b|--------------------------------
g|------------------------------------------------------------------
d|------------------------------------------------------
a|--------------------------------------------------------
e|----------------------------------------------------------

e|--8-p6-8p6--8p6--8p6-8p6-8p6-----------------------------
b|--------------------------------
g|------------------------------------------------------------------
d|------------------------------------------------------
a|--------------------------------------------------------
e|----------------------------------------------------------

part5
e|-----------------------------8---8----------------------
b|--------8-9-11-8-11--11---11-9^-8----------------
g|--s10--------------------------------------------------------------
d|------------------------------------------------------
a|--------------------------------------------------------
e|----------------------------------------------------------

part6
e|------------------------
b|--------------------------------
g|------------------------------------------------------------------
d|-3---3--3---3-3--3-x-x-x--------------------------------------------
a|-3---3--3---3-3--3-x-x-x---------------------------------------------- (x2)
e|-1---1--1---1-1--1-x-x-x--------------------------------------------

e|------------------------
b|--------------------------------
g|------------------------------------------------------------------
d|-6---6-6--6-6--6---x-x-x---8---8-8--8-8--8--------------------
a|-6---6-6--6-6--6---x-x-x---8---8-8--8-8--8---x-x-x---------------
e|-4---4-4--4-4--4---x-x-x---6---6-6--6-6--6---x-x-x---------------

*-artificial harmonic
^-bend
~-sustain note
x-dead note

song progression
intro-(x2)
intro background
part1-(x2)
verse-(part2)
chorus-(part3)
pre solo-(part4)
solo
after-solo-(part5)
after solo rhythm part-(part6)
part1 again 
here the song you'l will understand the parts cheer's
Добавлено: 16.09.2015
Другие материалы по этой песне:

Страница создана 01.05.2012
http://primanota.ru/kalmah/kill-the-idealist-chords.htm
Привет, Гость.
Предлагаем пройти революционный курс по гитаре.
Подарок от PrimaNota.Ru, забирай!