PrimaNota.ru - самый крупный в мире бесплатный архив песенных текстов, аккордов, табулатур и нот


Kalmah - Doubtful About It All - текст песни, таба, видео

Регистрация Запомнить меня
Войти через:  Facebook Google Twitter Vk Yandex Mail.ru

Kalmah - Doubtful About It All - текст песни, таба, видео

Печатать
Просмотров: 134
Уроки эстрадного вокала в Санкт-Петербурге
-------------------------------------------------------------------------------
                             Doubtful About It All - Kalmah
-------------------------------------------------------------------------------
Tabbed by: skyfire38
E-mail:

Just trying to fix common errors in existing tab for the part after intro. Hope it's correct

Tuning: Standard 

(x3)

       h p             h p
e|-------------------131713----------------22-17-22-18-17-20-18-17----18-17-------17------------------------|
B|15-151815-----------------15----------15-------------------------20-------20-18----20-18-17---------------|
G|----------14----14-----------14----14-------------------------------------------------------17------------|
D|-------------15-----------------15------------------------------------------------------------------------|  
A|----------------------------------------------------------------------------------------------------------|
E|----------------------------------------------------------------------------------------------------------|
     
(x1)

       h p             h p                                     h p             h p             h p 
e|-------------------131713----------------22-17-22-18-17-20-182018\17-15-18-171817\15-13-17-151715\13-12---|
B|15-151815-----------------15----------15----------------------------------------------------------------13|
G|----------14----14-----------14----14---------------------------------------------------------------------|   
D|-------------15-----------------15------------------------------------------------------------------------|  
A|----------------------------------------------------------------------------------------------------------|
E|----------------------------------------------------------------------------------------------------------|
     

************************************

| /   slide up
| \   slide down
| h   hammer-on
| p   pull-off
| ~   vibrato
| +   harmonic
| x   Mute note
| b   Bend
| pb  Pre-bend
| br  Bend release
| pbr Pre-bend release
| brb Bend release bend

************************************
Добавлено: 16.09.2015
Другие материалы по этой песне:

Страница создана 27.02.2012
http://primanota.ru/kalmah/doubtful-about-it-all-chords.htm
Привет, Гость.
Предлагаем пройти революционный курс по гитаре.
Подарок от PrimaNota.Ru, забирай!