PrimaNota.ru - самый крупный в мире бесплатный архив песенных текстов, аккордов, табулатур и нот


kaleido - Jane - таба, видео

Регистрация Запомнить меня
Войти через:  Facebook Google Twitter Vk Yandex Mail.ru

kaleido - Jane - таба, видео

Печатать
Просмотров: 51
Underrated band and song that is quite simple to play and reminiscent of No Doubt among other bands.

Intro: e|------------------------------------------------------------------|
       B|------------------------------------------------------------------|
       G|-x-6-x-6---------x-9-x-9---------x-6-x-6---------x-9-x-9----------|
       D|-x-6-x-6-x-7-x-7-x-9-x-9-x-9-x-9-x-6-x-6-x-7-x-7-x-9-x-9-99999999-|
       A|-x-4-x-4-x-7-x-7-x-7-x-7-x-9-x-9-x-4-x-4-x-7-x-7-x-7-x-7-99999999-|
       E|---------x-5-x-5---------x-7-x-7---------x-5-x-5---------77777777-|

Verse: e|------------------------------------------------------------------|
       B|------------------------------------------------------------------|
       G|-x-6-x-6---------x-9-x-9---------x-6-x-6---------x-9-x-9----------| X2
       D|-x-6-x-6-x-7-x-7-x-9-x-9-x-9-x-9-x-6-x-6-x-7-x-7-x-9-x-9-99999999-|
       A|-x-4-x-4-x-7-x-7-x-7-x-7-x-9-x-9-x-4-x-4-x-7-x-7-x-7-x-7-99999999-|
       E|---------x-5-x-5---------x-7-x-7---------x-5-x-5---------77777777-|

          She knows me dirty secrets, and she's always right here by my side whispering alibis.

          Devious and bittersweet, when I sleep she's all I see the naughty silhouette in my dreams OH-OH!

Pre-Chorus: e|--------------------------------------------|
            B|--------------------------------------------|
            G|-x-6-x-6---------x-9-x-9--------------------|
            D|-x-6-x-6-x-7-x-7-x-9-x-9-x-9-x-9-4~-6-7~-9~-|
            A|-x-4-x-4-x-7-x-7-x-7-x-7-x-9-x-9-4~-6-7~-9~-|
            E|---------x-5-x-5---------x-7-x-7-2~-4-5~-7~-|

               Her deception haunts my reflection. She's alive behind my eyes.

Chorus: e|----------------------------------|
        B|----------------------------------|
        G|-6666-----------------------------| X4
        D|-66669999777766664444444466667777-|
        A|-44449999777766664444444466667777-|
        E|-----7777555544442222222244445555-|

           Hey hey! She won't go away-ay, floodin' through my 

           vei-ei-ei-eins. Had my mind with her intentions.

           Hey hey! The voice inside my brai-ain, she keeps me 

           insa-a-a-ane. Dearest Jane, what's your intention?

        e|------------------|     e|------------------|
        B|------------------|     B|------------------|
        G|-6666-------------| X3  G|------------------|
        D|-6666777766664444-|     D|-4444444466666666-|
        A|-4444777766664444-|     A|-4444444466666666-|
        E|-----555544442222-|     E|-2222222244444444-|

           Hey-yo, Jane is why I'm

           stable. My twisted little 

           angel-whoa-oh

           Dearest Jane, what's your intention?

        e|------------------------------------------------------------------|
        B|------------------------------------------------------------------|
        G|---------------------------------666666666666666699999999---------|
        D|-7777777777777777999999999999999966666666666666669999999999999999-|
        A|-7777777777777777999999999999999944444444444444447777777799999999-|
        E|-55555555555555557777777777777777------------------------77777777-|

           Hey-oh-whoa-oh, hey-oh-whoa-oh. Tell me if I'm lo-sing con-trol

Pre-Verse: e|--------------------------------------------------------------|
           B|--------------------------------------------------------------|
           G|-x-6-x-6---------x-9-x-9-----x-6-x-6---------x-9-x-9----------|
           D|-x-6-x-6-x-7-x-7-x-9-x-9-9-x-x-6-x-6-x-7-x-7-x-9-x-9-99999999-|
           A|-x-4-x-4-x-7-x-7-x-7-x-7-9-x-x-4-x-4-x-7-x-7-x-7-x-7-99999999-|
           E|---------x-5-x-5---------7-x---------x-5-x-5---------77777777-|

                                  I'm lo-sing...control (this time)

Verse: e|------------------------------------------------------------------|
       B|------------------------------------------------------------------|
       G|-x-6-x-6---------x-9-x-9---------x-6-x-6---------x-9-x-9----------|
       D|-x-6-x-6-x-7-x-7-x-9-x-9-x-9-x-9-x-6-x-6-x-7-x-7-x-9-x-9-99999999-|
       A|-x-4-x-4-x-7-x-7-x-7-x-7-x-9-x-9-x-4-x-4-x-7-x-7-x-7-x-7-99999999-|
       E|---------x-5-x-5---------x-7-x-7---------x-5-x-5---------77777777-|

          My wicked shadow follows me, masquerading in disguise (in disguise)

Pre-Chorus: e|--------------------------------------------|
            B|--------------------------------------------|
            G|-x-6-x-6---------x-9-x-9--------------------|
            D|-x-6-x-6-x-7-x-7-x-9-x-9-x-9-x-9-4~-6-7~-9~-|
            A|-x-4-x-4-x-7-x-7-x-7-x-7-x-9-x-9-4~-6-7~-9~-|
            E|---------x-5-x-5---------x-7-x-7-2~-4-5~-7~-|

               Skippin', no steppin' murder in her eye-ey-eye-ey-eyes!

Chorus: e|----------------------------------|
        B|----------------------------------|
        G|-6666-----------------------------| X4
        D|-66669999777766664444444466667777-|
        A|-44449999777766664444444466667777-|
        E|-----7777555544442222222244445555-|

           Hey hey! She won't go away-ay, floodin' through my 

           vei-ei-ei-eins. Had my mind with her intentions.

           Hey hey! The voice inside my brai-ain, she keeps me 

           insa-a-a-ane. Dearest Jane, what's your intention?

        e|------------------|     e|------------------|
        B|------------------|     B|------------------|
        G|-6666-------------| X3  G|------------------|
        D|-6666777766664444-|     D|-4444444466666666-|
        A|-4444777766664444-|     A|-4444444466666666-|
        E|-----555544442222-|     E|-2222222244444444-|

           Hey-yo, Jane is why I'm

           stable. My twisted little 

           angel-whoa-oh

           Dearest Jane, what's your intention?

        e|------------------------------------------------------------------|
        B|------------------------------------------------------------------|
        G|---------------------------------666666666666666699999999---------|
        D|-7777777777777777999999999999999966666666666666669999999999999999-|
        A|-7777777777777777999999999999999944444444444444447777777799999999-|
        E|-55555555555555557777777777777777------------------------77777777-|

           Hey-oh-whoa-oh, hey-oh-whoa-oh. Tell me if I'm lo-sing con-trol

Bridge: e|-------------------------------------------------------------|
        B|-------------------------------------------------------------|
        G|-x-6-x-6---------x-9-x-9-----x-6-x-6---------x-9-x-9---------| X2
        D|-x-6-x-6-x-7-x-7-x-9-x-9-9-x-x-6-x-6-x-7-x-7-x-9-x-9-x-9-x-9-|
        A|-x-4-x-4-x-7-x-7-x-7-x-7-9-x-x-4-x-4-x-7-x-7-x-7-x-7-x-9-x-9-|
        E|---------x-5-x-5---------7-x---------x-5-x-5---------x-9-x-9-|

           Look into my eyes, and do exactly as I say.

           I know yo' gonna love me, baby. There ain't no escape. I got a bad history, got some bad tendencies.

           So don't compare me to her, don't compare her to me. The world is a lie, and know I got the keys.

           So watch me split seas and spread like a disease as I wave through the masses of boys on their knees.

Pre-Chorus: e|------------|
            B|------------|
            G|------------|
            D|-4~-6-7~-9~-|
            A|-4~-6-7~-9~-|
            E|-2~-4-5~-7~-|

               I'm like a pendulum, and you're gettin' very sleepy and you'll belong to me in 1, 2, 3.

Chorus: e|----------------------------------|
        B|----------------------------------|
        G|-6666-----------------------------| X4
        D|-66669999777766664444444466667777-|
        A|-44449999777766664444444466667777-|
        E|-----7777555544442222222244445555-|

           Hey hey! She won't go away-ay, floodin' through my 

           vei-ei-ei-eins. Had my mind with her intentions.

           Hey hey! The voice inside my brai-ain, she keeps me 

           insa-a-a-ane. Dearest Jane, what's your intention?

        e|------------------|     e|------------------|
        B|------------------|     B|------------------|
        G|-6666-------------| X3  G|------------------|
        D|-6666777766664444-|     D|-4444444466666666-|
        A|-4444777766664444-|     A|-4444444466666666-|
        E|-----555544442222-|     E|-2222222244444444-|

           Hey-yo, Jane is why I'm

           stable. My twisted little 

           angel-whoa-oh

           Dearest Jane, what's your intention?

        e|--------------------------------------------------------------------|
        B|--------------------------------------------------------------------|
        G|---------------------------------6666666666666666----------------6~-|
        D|-77777777777777779999999999999999666666666666666677777777999999996~-|
        A|-77777777777777779999999999999999444444444444444477777777999999994~-|
        E|-55555555555555557777777777777777----------------5555555577777777---|

           Hey-oh-whoa-oh, hey-oh-whoa-oh. Tell me if I'm lo-sing con-trol 
Добавлено: 23.06.2016
Другие материалы по этой песне:
  • Аккорды и текст

Страница создана 23.06.2016
http://primanota.ru/kaleido/jane-chords.htm
Привет, Гость.
Предлагаем пройти революционный курс по гитаре.
Подарок от PrimaNota.Ru, забирай!