PrimaNota.ru - самый крупный в мире бесплатный архив песенных текстов, аккордов, табулатур и нот


Kalashnikov - Sniper - таба, видео

Регистрация Запомнить меня
Войти через:  Facebook Google Twitter Vk Yandex Mail.ru

Kalashnikov - Sniper - таба, видео

Печатать
Просмотров: 163
-------------------------------------------------------------------------------
                             Sniper - Kalashnikov
-------------------------------------------------------------------------------
Tabbed by:Antonio23 (SorrisosIronicos)
Email:SorrisosIronicos@hotmail.com

Tuning:Standart

riff 1
E------------------------------------------------------------------|
B------------------------------------------------------------------|
G-----7h9-------------7h9-------------7h9--------------------------|
D---------7h9-7h9---------7h9-7h9---------7h9-7h9--------5---4-----|  X2
A--------------------------------------------------------5---4-----|
E-0-X8---0---0-----0-X8--0---0-----0-X8--0---0-----0-X8--3---2-----|
  *      *   *     *     *   *     *     *   *     *

riff2
E-----------------------|
B-----------------------|
G-----------------------|
D-----------------5--4--|  X4
A-----5h7-----5h7-5--4--|
E-0-0-----0-0-----3--2--|
  * *     * *     

riff1


riff2


E-----------------------    --------------------------|
B-----------------------    --------------------------|
G-----5--7--------------    ----5--7------------------|
D--2--5--7-------------- X3 -2--5--7------------------| X4
A--2--3--5------5----5--    -2--3--5------------------|
E--0---------5h7--5h7---    -0---------3h5-5-5-3p0----|

E------------------------------------------|
B------------------------------------------|
G--9----10--7/9-------12--11---------------|
D--9----10--7/9--x3---12--11---------------| X2
A--7----8---5/7-------10--9----------------|
E------------------------------------------|


riff1


riff2


E----------------------------------|
B----------------------------------|
G----------------------------------|
D----------------------------------| X8
A----------------------------------|
E-0-0-0-0-0-0-0-0-5-6-0-3-5-0-1-3--|


riff2


E-------------------------|
B-------------------------|
G-----------------3-3-----|
D--2-2--3-3--4-4--3-3--2--|
A--2-2--3-3--4-4--1-1--2--|
E--0-0--1-1--2-2-------0--|

| /  slide up
| \  slide down
| h  hammer-on
| p  pull-off
| ~  vibrato
| +  harmonic
| x  Mute note
| *  Palm mute ===============================================================================
Добавлено: 08.04.2012
Другие материалы по этой песне:

Страница создана 08.04.2012
http://primanota.ru/kalashnikov/sniper-chords.htm
Привет, Гость.
Предлагаем пройти революционный курс по гитаре.
Подарок от PrimaNota.Ru, забирай!