PrimaNota.ru - самый крупный в мире бесплатный архив песенных текстов, аккордов, табулатур и нот


Kalashnikov - Peace Is Dead - таба, видео

Регистрация Запомнить меня
Войти через:  Facebook Google Twitter Vk Yandex Mail.ru

Kalashnikov - Peace Is Dead - таба, видео

Печатать
Просмотров: 87
Peace Is Dead tab by Kalashnikov


|-------------------------------|
|-------------------------------|
|-------------------------------| (5x)
|--7-7-7-7-7--------------------|
|--7-7-7-7-7--------------------|
|--5-5-5-5-5--------------------|

|-------------------------------|
|-------------------------------|
|-------------------------------| 
|-------------------------------|
|-------------------------------|
|--5-5-6-4/5--------------------|

|-------------------------------|
|---------------7-5-------------|
|--------------------7-6--------|
|--7-7-7-7-7--------------------|
|--7-7-7-7-7--------------------|
|--5-5-5-5-5--------------------|

|-------------------------------|
|-------------------------------|
|-------------------------------|
|--7-7-7-7-7--------------------|
|--7-7-7-7-7--------------------|
|--5-5-5-5-5---5-5-6-4/5--------|

|-------------------------------|
|-------------------------------|
|---------------8---------------|
|--7-7-7-7-7----8---7-----------|
|--7-7-7-7-7----6---7-----------|
|--5-5-5-5-5--------5-----------|

|-------------------------------|
|-------------------------------|
|-------------------------------| (4x)
|---7-x-8-x-5-x-7-x-7-----------|
|-------------------------------|
|-------------------------------|

|-------------------------------|
|-------------------------------| (7x)
|--x-x-8------------------------| 
|--x-x-8------------------------|
|--x-x-6------------------------|
|-------------------------------|

|-------------------------------|
|-------------------------------|
|-------------------------------| (4x)
|---7-x-8-x-5-x-7-x-7-----------|
|-------------------------------|
|-------------------------------|

|-------------------------------|
|-------------------------------| (7x)
|--x-x-8------------------------| 
|--x-x-8------------------------|
|--x-x-6------------------------|
|-------------------------------|

|-------------------------------|
|-------------------------------|
|-------------------------------| (5x)
|--7-7-7-7-7--------------------|
|--7-7-7-7-7--------------------|
|--5-5-5-5-5--------------------|

|-------------------------------|
|-------------------------------|
|-------------------------------| 
|-------------------------------|
|-------------------------------|
|--5-5-6-4/5--------------------|

|-------------------------------|
|---------------7-5-------------|
|--------------------7-6--------|
|--7-7-7-7-7--------------------|
|--7-7-7-7-7--------------------|
|--5-5-5-5-5--------------------|

|-------------------------------|
|-------------------------------|
|-------------------------------|
|--7-7-7-7-7--------------------|
|--7-7-7-7-7--------------------|
|--5-5-5-5-5---5-5-6-4/5--------|

|-------------------------------|
|-------------------------------|
|---------------8---------------|
|--7-7-7-7-7----8---7-----------|
|--7-7-7-7-7----6---7-----------|
|--5-5-5-5-5--------5-----------|

|-------------------------------|
|-------------------------------|
|-------------------------------| (4x)
|---7-x-8-x-5-x-7-x-7-----------|
|-------------------------------|
|-------------------------------|

|-------------------------------|
|-------------------------------| (7x)
|--x-x-8------------------------| 
|--x-x-8------------------------|
|--x-x-6------------------------|
|-------------------------------|

|-------------------------------|
|-------------------------------|
|-------------------------------| (4x)
|---7-x-8-x-5-x-7-x-7-----------|
|-------------------------------|
|-------------------------------|

|-------------------------------|
|-------------------------------| 
|---8--8-8-8-8-8-8--------------| 
|---8--8-8-8-8-8-8--------------|
|---6--6-6-6-6-6-6--------------|
|-------------------------------|

|-------------------------------|
|-------------------------------|
|-------------------------------| (5x)
|--7-7-7-7-7--------------------|
|--7-7-7-7-7--------------------|
|--5-5-5-5-5--------------------|

|-------------------------------|
|-------------------------------|
|-------------------------------| 
|-------------------------------|
|-------------------------------|
|--5-5-6-4/5--------------------|

|-------------------------------|
|---------------7-5-------------|
|--------------------7-6--------|
|--7-7-7-7-7--------------------|
|--7-7-7-7-7--------------------|
|--5-5-5-5-5--------------------|

|-------------------------------|
|-------------------------------|
|-------------------------------|
|--7-7-7-7-7--------------------|
|--7-7-7-7-7--------------------|
|--5-5-5-5-5---5-5-6-4/5--------|

|-------------------------------|
|-------------------------------|
|---------------8---------------|
|--7-7-7-7-7----8---7-----------|
|--7-7-7-7-7----6---7-----------|
|--5-5-5-5-5--------5-----------|

REPEAT 4x----------------------------|
                                     |
|/   |/                            |
                                     |
|-------------------------------|    |
|-------------------------------|    |                  
|-------------------------------|   <
|----7-8-5-7-7------------------|    |
|-------------------------------|    |
|-------------------------------|    |
                                     |
|-------------------------------|    |
|-------------------------------|    |
|--7-8-10----7-8-10-------------|   <
|--7-8-10----7-8-10-------------|    |
|--5-6-8-----5-6-8--------------|    |
|-------------------------------|    |

|-------------------------------|
|-------------------------------|
|-------------------------------| 
|--7-7-7-7-7-7-7-7--------------|   ((LET RING))
|--7-7-7-7-7-7-7-7--------------|
|--5-5-5-5-5-5-5-5--------------|

Добавлено: 23.03.2012
Другие материалы по этой песне:
  • Аккорды и текст

Страница создана 23.03.2012
http://primanota.ru/kalashnikov/peace-is-dead-chords.htm
Привет, Гость.
Предлагаем пройти революционный курс по гитаре.
Подарок от PrimaNota.Ru, забирай!