PrimaNota.ru - самый крупный в мире бесплатный архив песенных текстов, аккордов, табулатур и нот


Kala - Mulle See Korda Ei Le - таба, видео

Регистрация Запомнить меня
Войти через:  Facebook Google Twitter Vk Yandex Mail.ru

Kala - Mulle See Korda Ei Le - таба, видео

Печатать
Просмотров: 96
Capo 3

Intro
Chords: D Dsus4 D Dsus2 D Dsus4 D Dus2 D      X4
that is basically:
e|--2-2-2-2-3-3-3--2-2-2-2-0-0-0--2-2-2-2-3-3-3--2-2-0-0-2-------|
B|--3-3-3-3-3-3-3--3-3-3-3-3-3-3--3-3-3-3-3-3-3--3-3-3-3-3-------|
G|--2-2-2-2-2-2-2--2-2-2-2-2-2-2--2-2-2-2-2-2-2--2-2-2-2-2-------|
D|--0-0-0-0-0-0-0--0-0-0-0-0-0-0--0-0-0-0-0-0-0--0-0-0-0-0-------|
A|---------------------------------------------------------------|
E|---------------------------------------------------------------|      x4

After playing 1/4 of intro, the flute part comes in (without capo)
e|--5-6-8-8---10-12-13-13---5-6-8-8---10-8-6-6---5-6-8-8---10-12-13-13--15-17-15-13-|
B|----------------------------------------------------------------------------------|
G|----------------------------------------------------------------------------------|
D|----------------------------------------------------------------------------------|
A|----------------------------------------------------------------------------------|
E|----------------------------------------------------------------------------------|    x2

e|--15-17-17-17-18-18---17-17-17-15-15---17-17-17-18-13-15-17-15-13-|
B|------------------------------------------------------------------|
G|------------------------------------------------------------------|
D|------------------------------------------------------------------|
A|------------------------------------------------------------------|
E|------------------------------------------------------------------|


Verse 1: (You can play verse same as intro or another alternative is to play D G D A D A 
D - both apply throughout the song) - don't forget the capo

D              G
Mida see loeb, lähed või jääd?
D               A
Minna või tulla sul vabad on käed,
D                 G
valla nii sisse- kui välja on pääs.
D         A        D
Mulle see korda ei läe.

Olen ma all või olen ma peal,
mida see loeb, minul on hea?
Kui sina arvad, et sul ei vea,
tee nagu õigeks pead.

Ükstama kõik on minule see,
kuhu sa lähed või mida sa teed.
Jutt juba läinud on pikale,
mulle see korda ei läe.

Na, na, naa ... Mulle see korda ei läe! (2)

Verse 2:
Olgu sul külm või olgu sul soe,
sina minu kaissu enam ei poe.
Mina sinu ribisid üle ei loe,
mine siis, mida sa koed?

Kõigest võid võtta endale pool,
pruugitud kola ju rõõmu ei too.
Võta juba kõik,
et mõru aroom haihtuks sinuga koos.

Ole vait, ära lärmi löö,
lukku võid keerata voorusevöö.
Valmis on saanud me tootmisetöö,
mis rikkus nii mõnegi öö.

Na, na, naa ... Mulle see korda ei läe! (2)

Verse 3:
Mida see loeb lähed või jääd?
Minna või tulla sul vabad on käed,
valla nii sisse- kui välja on pääs.
Mulle see korda ei läe.

Ükstama kõik on minule see,
kuhu sa läed või mida sa teed
Jutt juba läinud on pikale,
mulle see korda ei läe.

Mida see loeb, lähed või jääd,
mida see loeb, mida sa teed,
mida see loeb, mida see loeb,
mida see minule loeb?  (käige nüüd!)

Na, na, naa ... Mulle see korda ei läe! (2)


Bridge:
Play intro chords again   x3
Strum D5 power chord once every time it is D chord in intro chords (just listen, you'll get it)
After 1/3 of playing bridge, the flute part comes back again
e|--5-6-8-8---10-12-13-13---5-6-8-8---10-8-6-6---5-6-8-8---10-12-13-13--15-17-15-13-|
B|----------------------------------------------------------------------------------|
G|----------------------------------------------------------------------------------|
D|----------------------------------------------------------------------------------|
A|----------------------------------------------------------------------------------|
E|----------------------------------------------------------------------------------|

e|--15-17-17-17-18-18---17-17-17-15-15---17-17-17-18-13-15-17-15-13-|
B|------------------------------------------------------------------|
G|------------------------------------------------------------------|
D|------------------------------------------------------------------|
A|------------------------------------------------------------------|
E|------------------------------------------------------------------|

At 3/3 of the bridge, following lyrics come in:

Peida end kaua, kaugele vii
kui siis tagasi ihaldad mind.
Tuleb murda maha meil kirg
võib, kui sallin veel sind.

Play D only once, then almost no playing, only seldom D5 in the 2nd part of chorus:

Na, na, naa ... Mulle see korda ei läe! (Pane veel!)
Na, na, naa ... Mulle see korda ei läe! (Tule nüüd!)

Start playing the same intro/verse combination
Na, na na...  ...   ...   ...
... mulle see korda ei läe

End on D
Добавлено: 12.08.2013
Другие материалы по этой песне:
  • Аккорды и текст

Страница создана 12.08.2013
http://primanota.ru/kala/mulle-see-korda-ei-le-chords.htm
Привет, Гость.
Предлагаем пройти революционный курс по гитаре.
Подарок от PrimaNota.Ru, забирай!