PrimaNota.ru - самый крупный в мире бесплатный архив песенных текстов, аккордов, табулатур и нот


Kaki King - Trying To Speak I - таба, видео

Регистрация Запомнить меня
Войти через:  Facebook Google Twitter Vk Yandex Mail.ru

Kaki King - Trying To Speak I - таба, видео

Печатать
Просмотров: 51
Song: Trying to Speak I
Artist: Kaki King
Album: The Neck Is a Bridge to the Body

Tabbed by: Barry Cannon
E-mail: barry.cannon5@mail.dcu.ie

Tuning: Open D minor (D A D F A D)

How to get there from standard tuning:
e -> down 2 semitones -> D
B -> down 2 semitones -> A
G -> down 2 semitones -> F
D -> no change        -> D
A -> no change        -> A
E -> down 2 semitones -> D

Extra Resources:

Kaki herself made an instructional video explaining the technique behind this piece.
I would highly recommend watching this video before approaching the tablature.

Kaki's lesson for part 1: https://www.youtube.com/watch?v=epREGA4PzxI

I
D|--------0-------0-h7-----7-p0-----0-|--------0-------0-h7-----7-p0-----0-|
A|------0---h8--8--------8---p0---0---|------0---h8--8--------8---p0---0---|
F|-h9-9-------9--------9-----p0-0-----|-h9-9-------9--------9-----p0-0-----|
D|------------------------------------|------------------------------------|
A|------------------------------------|------------------------------------|
D|------------------------------------|------------------------------------|
   1                                    2

|--------0-------0-h7-----7-p0-----0-|--------0-------0-h7-----7-p0-----0-|
|------0---h8--8--------8---p0---0---|------0---h8--8--------8---p0---0---|
|-h9-9-------9--------9-----p0-0-----|-h9-9-------9--------9-----p0-0-----|
|------------------------------------|------------------------------------|
|------------------------------------|------------------------------------|
|------------------------------------|------------------------------------|
  3                                    4

|--------0-------0-h7-----7-p0-----0-|--------0-------0-h7-----7-p0-----0-|
|------0---h8--8--------8---p0---0---|------0---h8--8--------8---p0---0---|
|-h9-9-------9--------9-----p0-0-----|-h9-9-------9--------9-----p0-0-----|
|------------------------------------|------------------------------------|
|------------------------------------|------------------------------------|
|------------------------------------|------------------------------------|
  5                                    6

|--------0-------0-h7-----7-p0-----0-|--------0-------0-h7-----7-p0-----0-|
|------0---h8--8--------8---p0---0---|------0---h8--8--------8---p0---0---|
|-h9-9-------9--------9-----p0-0-----|-h9-9-------9--------9-----p0-0-----|
|------------------------------------|------------------------------------|
|------------------------------------|------------------------------------|
|------------------------------------|------------------------------------|
  7                                    8

|------------------------------------|------------------------------------|
|--------0-------0-h7-----7-p0-----0-|--------0-------0-h7-----7-p0-----0-|
|------0---h8--8--------8---p0---0---|------0---h8--8--------8---p0---0---|
|-h9-9-------9--------9-----p0-0-----|-h9-9-------9--------9-----p0-0-----|
|------------------------------------|------------------------------------|
|------------------------------------|------------------------------------|
  9                                    10

|------------------------------------|------------------------------------|
|--------0-------0-h7-----7-p0-----0-|--------0-------0-h7-----7-p0-----0-|
|------0---h8--8--------8---p0---0---|------0---h8--8--------8---p0---0---|
|-h9-9-------9--------9-----p0-0-----|-h9-9-------9--------9-----p0-0-----|
|------------------------------------|------------------------------------|
|------------------------------------|------------------------------------|
  11                                   12

|--------0-------0-h3-----3-p0-----0-|--------0-------0-h3-----3-p0-----0-|
|------0---h4--4--------4---p0---0---|------0---h4--4--------4---p0---0---|
|-h5-5-------5--------5-----p0-0-----|-h5-5-------5--------5-----p0-0-----|
|------------------------------------|------------------------------------|
|------------------------------------|------------------------------------|
|------------------------------------|------------------------------------|
  13                                   14

|--------0-------0-h3-----3-p0-----0-|--------0-------0-h3-----3-p0-----0-|
|------0---h4--4--------4---p0---0---|------0---h4--4--------4---p0---0---|
|-h5-5-------5--------5-----p0-0-----|-h5-5-------5--------5-----p0-0-----|
|------------------------------------|------------------------------------|
|------------------------------------|------------------------------------|
|------------------------------------|------------------------------------|
  15                                   16

|------------------------------------|------------------------------------|
|--------0-------0-h3-----3-p0-----0-|--------0-------0-h3-----3-p0-----0-|
|------0---h4--4--------4---p0---0---|------0---h4--4--------4---p0---0---|
|-h5-5-------5--------5-----p0-0-----|-h5-5-------5--------5-----p0-0-----|
|------------------------------------|------------------------------------|
|------------------------------------|------------------------------------|
  17                                  18

|------------------------------------|------------------------------------|
|--------0-------0-h3-----3-p0-----0-|--------0-------0-h3-----3-p0-----0-|
|------0---h4--4--------4---p0---0---|------0---h4--4--------4---p0---0---|
|-h5-5-------5--------5-----p0-0-----|-h5-5-------5--------5-----p0-0-----|
|------------------------------------|------------------------------------|
|------------------------------------|-----------------------------------0|
  19                                  20

II
|--------0-------0-h7-----7-p0-----0-|--------0-------0-h7-----7-p0-----0-|
|------0---h8--8--------8---p0---0---|------0---h8--8--------8---p0---0---|
|-h9-9-------9--------9-----p0-0-----|-h9-9-------9--------9-----p0-0-----|
|------------------------------------|------------------------------------|
|------------------------------------|------------------------------------|
|------------------------------------|------------------------------------|
  21                                   22

|--------0-------0-h7-----7-p0-----0-|--------0-------0-h7-----7-p0-----0-|
|------0---h8--8--------8---p0---0---|------0---h8--8--------8---p0---0---|
|-h9-9-------9--------9-----p0-0-----|-h9-9-------9--------9-----p0-0-----|
|------------------------------------|------------------------------------|
|------------------------------------|------------------------------------|
|------------------------------------|------------------------------------|
  23                                   24

|------------------------------------|------------------------------------|
|--------0-------0-h7-----7-p0-----0-|--------0-------0-h7-----7-p0-----0-|
|------0---h8--8--------8---p0---0---|------0---h8--8--------8---p0---0---|
|-h9-9-------9--------9-----p0-0-----|-h9-9-------9--------9-----p0-0-----|
|------------------------------------|------------------------------------|
|------------------------------------|------------------------------------|
  25                                   26

|------------------------------------|------------------------------------|
|--------0-------0-h7-----7-p0-----0-|--------0-------0-h7-----7-p0-----0-|
|------0---h8--8--------8---p0---0---|------0---h8--8--------8---p0---0---|
|-h9-9-------9--------9-----p0-0-----|-h9-9-------9--------9-----p0-0-----|
|------------------------------------|------------------------------------|
|------------------------------------|------------------------------------|
  27                                   28

|--------0-------0-h3-----3-p0-----0-|--------0-------0-h3-----3-p0-----0-|
|------0---h4--4--------4---p0---0---|------0---h4--4--------4---p0---0---|
|-h5-5-------5--------5-----p0-0-----|-h5-5-------5--------5-----p0-0-----|
|------------------------------------|------------------------------------|
|------------------------------------|------------------------------------|
|------------------------------------|------------------------------------|
  29                                   30

|--------0-------0-h3-----3-p0-----0-|--------0-------0-h3-----3-p0-----0-|
|------0---h4--4--------4---p0---0---|------0---h4--4--------4---p0---0---|
|-h5-5-------5--------5-----p0-0-----|-h5-5-------5--------5-----p0-0-----|
|------------------------------------|------------------------------------|
|------------------------------------|------------------------------------|
|------------------------------------|------------------------------------|
  31                                   32

|------------------------------------|------------------------------------|
|--------0-------0-h3-----3-p0-----0-|--------0-------0-h3-----3-p0-----0-|
|------0---h4--4--------4---p0---0---|------0---h4--4--------4---p0---0---|
|-h5-5-------5--------5-----p0-0-----|-h5-5-------5--------5-----p0-0-----|
|------------------------------------|------------------------------------|
|------------------------------------|------------------------------------|
  33                                   34

|------------------------------------|------------------------------------|
|--------0-------0-h3-----3-p0-----0-|--------0-------0-h3-----3-p0-----0-|
|------0---h4--4--------4---p0---0---|------0---h4--4--------4---p0---0---|
|-h5-5-------5--------5-----p0-0-----|-h5-5-------5--------5-----p0-0-----|
|------------------------------------|------------------------------------|
|------------------------------------|------------------------------------|
  35                                   36

|------------------------------------|------------------------------------|
|------------------------------------|------------------------------------|
|--------0-------0-h5-----5-p0-----0-|--------0-------0-h5-----5-p0-----0-|
|------0---h6--6--------6---p0---0---|------0---h6--6--------6---p0---0---|
|-h7-7-------7--------7-----p0-0-----|-h7-7-------7--------7-----p0-0-----|
|------------------------------------|------------------------------------|
  37                                   38

|------------------------------------|------------------------------------|
|------------------------------------|------------------------------------|
|--------0-------0-h5-----5-p0-----0-|--------0-------0-h5-----5-p0-----0-|
|------0---h6--6--------6---p0---0---|------0---h6--6--------6---p0---0---|
|-h7-7-------7--------7-----p0-0-----|-h7-7-------7--------7-----p0-0-----|
|------------------------------------|------------------------------------|
  39                                   40

|------------------------------------|------------------------------------|
|------------------------------------|------------------------------------|
|--------0-------0-h2-----2-p0-----0-|--------0-------0-h2-----2-p0-----0-|
|------0---h3--3--------3---p0---0---|------0---h3--3--------3---p0---0---|
|-h4-4-------4--------4-----p0-0-----|-h4-4-------4--------4-----p0-0-----|
|------------------------------------|------------------------------------|
  41                                   42

|------------------------------------|------------------------------------|
|------------------------------------|------------------------------------|
|--------0-------0-h2-----2-p0-----0-|--------0-------0-h2-----2-p0-----0-|
|------0---h3--3--------3---p0---0---|------0---h3--3--------3---p0---0---|
|-h4-4-------4--------4-----p0-0-----|-h4-4-------4--------4-----p0-0-----|
|------------------------------------|------------------------------------|
  43                                   44

|------------------------------------|------------------------------------|
|------------------------------------|------------------------------------|
|------------------------------------|------------------------------------|
|--------0-------0-h3-----3-p0-----0-|--------0-------0-h3-----3-p0-----0-|
|------0---h5--5--------5---p0---0---|------0---h5--5--------5---p0---0---|
|-h5-5-------5--------5-----p0-0-----|-h5-5-------5--------5-----p0-0-----|
  45                                   46

|------------------------------------|------------------------------------|
|------------------------------------|------------------------------------|
|------------------------------------|------------------------------------|
|--------0-------0-h3-----3-p0-----0-|--------0-------0-h3-----3-p0-----0-|
|------0---h5--5--------5---p0---0---|------0---h5--5--------5---p0---0---|
|-h5-5-------5--------5-----p0-0-----|-h5-5-------5--------5-----p0-0----0|
  47                                   48

III
|--------0-------0-h7-----7-p0-----0-|--------0-------0-h7-----7-p0-----0-|
|------0---h8--8--------8---p0---0---|------0---h8--8--------8---p0---0---|
|-h9-9-------9--------9-----p0-0-----|-h9-9-------9--------9-----p0-0-----|
|------------------------------------|------------------------------------|
|------------------------------------|------------------------------------|
|------------------------------------|------------------------------------|
  49                                   50

|--------0-------0-h7-----7-p0-----0-|--------0-------0-h7-----7-p0-----0-|
|------0---h8--8--------8---p0---0---|------0---h8--8--------8---p0---0---|
|-h9-9-------9--------9-----p0-0-----|-h9-9-------9--------9-----p0-0-----|
|------------------------------------|------------------------------------|
|------------------------------------|------------------------------------|
|------------------------------------|------------------------------------|
  51                                   52

|------------------------------------|------------------------------------|
|--------0-------0-h7-----7-p0-----0-|--------0-------0-h7-----7-p0-----0-|
|------0---h8--8--------8---p0---0---|------0---h8--8--------8---p0---0---|
|-h9-9-------9--------9-----p0-0-----|-h9-9-------9--------9-----p0-0-----|
|------------------------------------|------------------------------------|
|------------------------------------|------------------------------------|
  53                                   54

|------------------------------------|------------------------------------|
|--------0-------0-h7-----7-p0-----0-|--------0-------0-h7-----7-p0-----0-|
|------0---h8--8--------8---p0---0---|------0---h8--8--------8---p0---0---|
|-h9-9-------9--------9-----p0-0-----|-h9-9-------9--------9-----p0-0-----|
|------------------------------------|------------------------------------|
|------------------------------------|------------------------------------|
  55                                   56

|--------0-------0-h3-----3-p0-----0-|--------0-------0-h3-----3-p0-----0-|
|------0---h4--4--------4---p0---0---|------0---h4--4--------4---p0---0---|
|-h5-5-------5--------5-----p0-0-----|-h5-5-------5--------5-----p0-0-----|
|------------------------------------|------------------------------------|
|------------------------------------|------------------------------------|
|------------------------------------|------------------------------------|
  57                                   58

|--------0-------0-h3-----3-p0-----0-|--------0-------0-h3-----3-p0-----0-|
|------0---h4--4--------4---p0---0---|------0---h4--4--------4---p0---0---|
|-h5-5-------5--------5-----p0-0-----|-h5-5-------5--------5-----p0-0-----|
|------------------------------------|------------------------------------|
|------------------------------------|------------------------------------|
|------------------------------------|------------------------------------|
  59                                   60

|------------------------------------|------------------------------------|
|--------0-------0-h3-----3-p0-----0-|--------0-------0-h3-----3-p0-----0-|
|------0---h4--4--------4---p0---0---|------0---h4--4--------4---p0---0---|
|-h5-5-------5--------5-----p0-0-----|-h5-5-------5--------5-----p0-0-----|
|------------------------------------|------------------------------------|
|------------------------------------|------------------------------------|
  61                                   62

|------------------------------------|------------------------------------|
|--------0-------0-h3-----3-p0-----0-|--------0-------0-h3-----3-p0-----0-|
|------0---h4--4--------4---p0---0---|------0---h4--4--------4---p0---0---|
|-h5-5-------5--------5-----p0-0-----|-h5-5-------5--------5-----p0-0-----|
|------------------------------------|------------------------------------|
|------------------------------------|------------------------------------|
  63                                   64

|------------------------------------|------------------------------------|
|------------------------------------|------------------------------------|
|--------0-------0-h5-----5-p0-----0-|--------0-------0-h5-----5-p0-----0-|
|------0---h6--6--------6---p0---0---|------0---h6--6--------6---p0---0---|
|-h7-7-------7--------7-----p0-0-----|-h7-7-------7--------7-----p0-0-----|
|------------------------------------|------------------------------------|
  65                                   66

|------------------------------------|------------------------------------|
|------------------------------------|------------------------------------|
|--------0-------0-h5-----5-p0-----0-|--------0-------0-h5-----5-p0-----0-|
|------0---h6--6--------6---p0---0---|------0---h6--6--------6---p0---0---|
|-h7-7-------7--------7-----p0-0-----|-h7-7-------7--------7-----p0-0-----|
|------------------------------------|------------------------------------|
  67                                   68

|------------------------------------|------------------------------------|
|------------------------------------|------------------------------------|
|------------------------------------|------------------------------------|
|--------0-------0-h7-----7-p0-----0-|--------0-------0-h7-----7-p0-----0-|
|------0---h8--8--------8---p0---0---|------0---h8--8--------8---p0---0---|
|-h9-9-------9--------9-----p0-0-----|-h9-9-------9--------9-----p0-0-----|
  69                                   70

|------------------------------------|------------------------------------|
|------------------------------------|------------------------------------|
|------------------------------------|------------------------------------|
|--------0-------0-h7-----7-p0-----0-|--------0-------0-h7-----7-p0-----0-|
|------0---h8--8--------8---p0---0---|------0---h8--8--------8---p0---0---|
|-h9-9-------9--------9-----p0-0-----|-h9-9-------9--------9-----p0-0-----|
  71                                   72

|------------------------------------|------------------------------------|
|------------------------------------|------------------------------------|
|------------------------------------|------------------------------------|
|--------0-------0-h7-----7-p0-----0-|--------0-------0-h7-----7-p0-----0-|
|------0---h8--8--------8---p0---0---|------0---h8--8--------8---p0---0---|
|-h8-8-------8--------8-----p0-0-----|-h8-8-------8--------8-----p0-0-----|
  73                                   74

|------------------------------------|------------------------------------|
|------------------------------------|------------------------------------|
|------------------------------------|------------------------------------|
|--------0-------0-h7-----7-p0-----0-|--------0-------0-h7-----7-p0-----0-|
|------0---h8--8--------8---p0---0---|------0---h8--8--------8---p0---0---|
|-h8-8-------8--------8-----p0-0-----|-h8-8-------8--------8-----p0-0-----|
  75                                   76

IV
|------------------------------------|------------------------------------|
|------------------------------------|------------------------------------|
|------------------------------------|------------------------------------|
|--------0-------0-h2-----2-p0-----0-|--------0-------0-h2-----2-p0-----0-|
|------0---h3--3--------3---p0---0---|------0---h3--3--------3--------3---|
|-h3-3-------3--------3-----p0-0-----|-h3-3-------3--------3--------3-----|
  77                                   78

|------------------------------------|------------------------------------|
|------------------------------------|------------------------------------|
|------------------------------------|------------------------------------|
|--------0-------0-h2-----0-h3-----0-|-h2-----0-p0----0--------0--------0-|
|------0---h3--3--------3--------3---|------3-------3---p0---0---h3---0---|
|-p0-0-------0--------0--------0-----|----0-------0--------0--------0-----|
  79                                   80

|------------------------------------|------------------------------------|
|------------------------------------|------------------------------------|
|------------------------------------|------------------------------------|
|--------0-------0-h2-----2-p0-----0-|--------0-------0-h2-----2-p0-----0-|
|------0---h3--3--------3---p0---0---|------0---h3--3--------3--------3---|
|-h3-3-------3--------3-----p0-0-----|-h3-3-------3--------3--------3-----|
  81                                   82

|------------------------------------|------------------------------------|
|------------------------------------|------------------------------------|
|------------------------------------|------------------------------------|
|--------0-------0-h2-----0-h3-----0-|-h2-----0-p0----0--------0--------0-|
|------0---h3--3--------3--------3---|------3-------3---p0---0---h3---0---|
|-p0-0-------0--------0--------0-----|----0-------0--------0--------0-----|
  83                                   84

|------------------------------------|------------------------------------|
|------------------------------------|------------------------------------|
|------------------------------------|------------------------------------|
|--------0-------0-h2-----2-p0-----0-|--------0-------0-h2-----2-p0-----0-|
|------0---h3--3--------3---p0---0---|------0---h3--3--------3--------3---|
|-h3-3-------3--------3-----p0-0-----|-h3-3-------3--------3--------3-----|
  85                                   86

|------------------------------------|------------------------------------|
|------------------------------------|------------------------------------|
|------------------------------------|------------------------------------|
|--------0-------0-h2-----0-h3-----0-|-h2-----0-p0----0--------0--------0-|
|------0---h3--3--------3--------3---|------3-------3---p0---0---h3---0---|
|-p0-0-------0--------0--------0-----|----0-------0--------0--------0-----|
  87                                   88

|------------------------------------|------------------------------------|
|------------------------------------|------------------------------------|
|------------------------------------|------------------------------------|
|--------0-------0-h2-----2-p0-----0-|--------0-------0-h2-----2-p0-----0-|
|------0---h3--3--------3---p0---0---|------0---h3--3--------3--------3---|
|-h3-3-------3--------3-----p0-0-----|-h3-3-------3--------3--------3-----|
  89                                   90

|------------------------------------|------------------------------------|
|------------------------------------|------------------------------------|
|------------------------------------|------------------------------------|
|--------0-------0-h2-----0-h3-----0-|-h2-----0-p0----0--------0--------0-|
|------0---h3--3--------3--------3---|------3-------3---p0---0---h3---0---|
|-p0-0-------0--------0--------0-----|----0-------0--------0--------0----0|
  91                                   92                                   

V (identical to III)
|--------0-------0-h7-----7-p0-----0-|--------0-------0-h7-----7-p0-----0-|
|------0---h8--8--------8---p0---0---|------0---h8--8--------8---p0---0---|
|-h9-9-------9--------9-----p0-0-----|-h9-9-------9--------9-----p0-0-----|
|------------------------------------|------------------------------------|
|------------------------------------|------------------------------------|
|------------------------------------|------------------------------------|
  93                                   94

|--------0-------0-h7-----7-p0-----0-|--------0-------0-h7-----7-p0-----0-|
|------0---h8--8--------8---p0---0---|------0---h8--8--------8---p0---0---|
|-h9-9-------9--------9-----p0-0-----|-h9-9-------9--------9-----p0-0-----|
|------------------------------------|------------------------------------|
|------------------------------------|------------------------------------|
|------------------------------------|------------------------------------|
  95                                   96

|------------------------------------|------------------------------------|
|--------0-------0-h7-----7-p0-----0-|--------0-------0-h7-----7-p0-----0-|
|------0---h8--8--------8---p0---0---|------0---h8--8--------8---p0---0---|
|-h9-9-------9--------9-----p0-0-----|-h9-9-------9--------9-----p0-0-----|
|------------------------------------|------------------------------------|
|------------------------------------|------------------------------------|
  97                                   98

|------------------------------------|------------------------------------|
|--------0-------0-h7-----7-p0-----0-|--------0-------0-h7-----7-p0-----0-|
|------0---h8--8--------8---p0---0---|------0---h8--8--------8---p0---0---|
|-h9-9-------9--------9-----p0-0-----|-h9-9-------9--------9-----p0-0-----|
|------------------------------------|------------------------------------|
|------------------------------------|------------------------------------|
  99                                   100

|--------0-------0-h3-----3-p0-----0-|--------0-------0-h3-----3-p0-----0-|
|------0---h4--4--------4---p0---0---|------0---h4--4--------4---p0---0---|
|-h5-5-------5--------5-----p0-0-----|-h5-5-------5--------5-----p0-0-----|
|------------------------------------|------------------------------------|
|------------------------------------|------------------------------------|
|------------------------------------|------------------------------------|
  101                                  102

|--------0-------0-h3-----3-p0-----0-|--------0-------0-h3-----3-p0-----0-|
|------0---h4--4--------4---p0---0---|------0---h4--4--------4---p0---0---|
|-h5-5-------5--------5-----p0-0-----|-h5-5-------5--------5-----p0-0-----|
|------------------------------------|------------------------------------|
|------------------------------------|------------------------------------|
|------------------------------------|------------------------------------|
  103                                  104

|------------------------------------|------------------------------------|
|--------0-------0-h3-----3-p0-----0-|--------0-------0-h3-----3-p0-----0-|
|------0---h4--4--------4---p0---0---|------0---h4--4--------4---p0---0---|
|-h5-5-------5--------5-----p0-0-----|-h5-5-------5--------5-----p0-0-----|
|------------------------------------|------------------------------------|
|------------------------------------|------------------------------------|
  105                                  106

|------------------------------------|------------------------------------|
|--------0-------0-h3-----3-p0-----0-|--------0-------0-h3-----3-p0-----0-|
|------0---h4--4--------4---p0---0---|------0---h4--4--------4---p0---0---|
|-h5-5-------5--------5-----p0-0-----|-h5-5-------5--------5-----p0-0-----|
|------------------------------------|------------------------------------|
|------------------------------------|------------------------------------|
  107                                  108

|------------------------------------|------------------------------------|
|------------------------------------|------------------------------------|
|--------0-------0-h5-----5-p0-----0-|--------0-------0-h5-----5-p0-----0-|
|------0---h6--6--------6---p0---0---|------0---h6--6--------6---p0---0---|
|-h7-7-------7--------7-----p0-0-----|-h7-7-------7--------7-----p0-0-----|
|------------------------------------|------------------------------------|
  109                                  110

|------------------------------------|------------------------------------|
|------------------------------------|------------------------------------|
|--------0-------0-h5-----5-p0-----0-|--------0-------0-h5-----5-p0-----0-|
|------0---h6--6--------6---p0---0---|------0---h6--6--------6---p0---0---|
|-h7-7-------7--------7-----p0-0-----|-h7-7-------7--------7-----p0-0-----|
|------------------------------------|------------------------------------|
  111                                  112

|------------------------------------|------------------------------------|
|------------------------------------|------------------------------------|
|------------------------------------|------------------------------------|
|--------0-------0-h7-----7-p0-----0-|--------0-------0-h7-----7-p0-----0-|
|------0---h8--8--------8---p0---0---|------0---h8--8--------8---p0---0---|
|-h9-9-------9--------9-----p0-0-----|-h9-9-------9--------9-----p0-0-----|
  113                                  114

|------------------------------------|------------------------------------|
|------------------------------------|------------------------------------|
|------------------------------------|------------------------------------|
|--------0-------0-h7-----7-p0-----0-|--------0-------0-h7-----7-p0-----0-|
|------0---h8--8--------8---p0---0---|------0---h8--8--------8---p0---0---|
|-h9-9-------9--------9-----p0-0-----|-h9-9-------9--------9-----p0-0-----|
  115                                  116

|------------------------------------|------------------------------------|
|------------------------------------|------------------------------------|
|------------------------------------|------------------------------------|
|--------0-------0-h7-----7-p0-----0-|--------0-------0-h7-----7-p0-----0-|
|------0---h8--8--------8---p0---0---|------0---h8--8--------8---p0---0---|
|-h8-8-------8--------8-----p0-0-----|-h8-8-------8--------8-----p0-0-----|
  117                                  118

|------------------------------------|------------------------------------|
|------------------------------------|------------------------------------|
|------------------------------------|------------------------------------|
|--------0-------0-h7-----7-p0-----0-|--------0-------0-h7-----7-p0-----0-|
|------0---h8--8--------8---p0---0---|------0---h8--8--------8---p0---0---|
|-h8-8-------8--------8-----p0-0-----|-h8-8-------8--------8-----p0-0-----|
  119                                  120

VI (IV repeated 3 times)
|------------------------------------|------------------------------------|
|------------------------------------|------------------------------------|
|------------------------------------|------------------------------------|
|--------0-------0-h2-----2-p0-----0-|--------0-------0-h2-----2-p0-----0-|
|------0---h3--3--------3---p0---0---|------0---h3--3--------3--------3---|
|-h3-3-------3--------3-----p0-0-----|-h3-3-------3--------3--------3-----|
  121                                  122    

|------------------------------------|------------------------------------|
|------------------------------------|------------------------------------|
|------------------------------------|------------------------------------|
|--------0-------0-h2-----0-h3-----0-|-h2-----0-p0----0--------0--------0-|
|------0---h3--3--------3--------3---|------3-------3---p0---0---h3---0---|
|-p0-0-------0--------0--------0-----|----0-------0--------0--------0-----|
  123                                  124
                        
|------------------------------------|------------------------------------|
|------------------------------------|------------------------------------|
|------------------------------------|------------------------------------|
|--------0-------0-h2-----2-p0-----0-|--------0-------0-h2-----2-p0-----0-|
|------0---h3--3--------3---p0---0---|------0---h3--3--------3--------3---|
|-h3-3-------3--------3-----p0-0-----|-h3-3-------3--------3--------3-----|
  125                                  126                                     

|------------------------------------|------------------------------------|
|------------------------------------|------------------------------------|
|------------------------------------|------------------------------------|
|--------0-------0-h2-----0-h3-----0-|-h2-----0-p0----0--------0--------0-|
|------0---h3--3--------3--------3---|------3-------3---p0---0---h3---0---|
|-p0-0-------0--------0--------0-----|----0-------0--------0--------0-----|
  127                                  128
                        
|------------------------------------|------------------------------------|
|------------------------------------|------------------------------------|
|------------------------------------|------------------------------------|
|--------0-------0-h2-----2-p0-----0-|--------0-------0-h2-----2-p0-----0-|
|------0---h3--3--------3---p0---0---|------0---h3--3--------3--------3---|
|-h3-3-------3--------3-----p0-0-----|-h3-3-------3--------3--------3-----|
  129                                  130                                      

|------------------------------------|------------------------------------|
|------------------------------------|------------------------------------|
|------------------------------------|------------------------------------|
|--------0-------0-h2-----0-h3-----0-|-h2-----0-p0----0--------0--------0-|
|------0---h3--3--------3--------3---|------3-------3---p0---0---h3---0---|
|-p0-0-------0--------0--------0-----|----0-------0--------0--------0-----|
  131                                  132            
                        
|------------------------------------|------------------------------------|
|------------------------------------|------------------------------------|
|------------------------------------|------------------------------------|
|--------0-------0-h2-----2-p0-----0-|--------0-------0-h2-----2-p0-----0-|
|------0---h3--3--------3---p0---0---|------0---h3--3--------3--------3---|
|-h3-3-------3--------3-----p0-0-----|-h3-3-------3--------3--------3-----|
  133                                  134                                      

|------------------------------------|------------------------------------|
|------------------------------------|------------------------------------|
|------------------------------------|------------------------------------|
|--------0-------0-h2-----0-h3-----0-|-h2-----0-p0----0--------0--------0-|
|------0---h3--3--------3--------3---|------3-------3---p0---0---h3---0---|
|-p0-0-------0--------0--------0-----|----0-------0--------0--------0-----|
  135                                  136            
                        
|------------------------------------|------------------------------------|
|------------------------------------|------------------------------------|
|------------------------------------|------------------------------------|
|--------0-------0-h2-----2-p0-----0-|--------0-------0-h2-----2-p0-----0-|
|------0---h3--3--------3---p0---0---|------0---h3--3--------3--------3---|
|-h3-3-------3--------3-----p0-0-----|-h3-3-------3--------3--------3-----|
  137                                  138                                      

|------------------------------------|------------------------------------|
|------------------------------------|------------------------------------|
|------------------------------------|------------------------------------|
|--------0-------0-h2-----0-h3-----0-|-h2-----0-p0----0--------0--------0-|
|------0---h3--3--------3--------3---|------3-------3---p0---0---h3---0---|
|-p0-0-------0--------0--------0-----|----0-------0--------0--------0-----|
  139                                  140            
                        
|------------------------------------|------------------------------------|
|------------------------------------|------------------------------------|
|------------------------------------|------------------------------------|
|--------0-------0-h2-----2-p0-----0-|--------0-------0-h2-----2-p0-----0-|
|------0---h3--3--------3---p0---0---|------0---h3--3--------3--------3---|
|-h3-3-------3--------3-----p0-0-----|-h3-3-------3--------3--------3-----|
  141                                  142                                     

|------------------------------------|------------------------------------|
|------------------------------------|------------------------------------|
|------------------------------------|------------------------------------|
|--------0-------0-h2-----0-h3-----0-|-h2-----0-p0----0--------0--------0-|
|------0---h3--3--------3--------3---|------3-------3---p0---0---h3---0---|
|-p0-0-------0--------0--------0-----|----0-------0--------0--------0-----|
  143                                  144          
                        
|------------------------------------|------------------------------------|
|------------------------------------|------------------------------------|
|------------------------------------|------------------------------------|
|--------0-------0-h2-----2-p0-----0-|--------0-------0-h2-----2-p0-----0-|
|------0---h3--3--------3---p0---0---|------0---h3--3--------3--------3---|
|-h3-3-------3--------3-----p0-0-----|-h3-3-------3--------3--------3-----|
  145                                  146            

|------------------------------------|------------------------------------|
|------------------------------------|------------------------------------|
|------------------------------------|------------------------------------|
|--------0-------0-h2-----0-h3-----0-|-h2-----0-p0----0--------0--------0-|
|------0---h3--3--------3--------3---|------3-------3---p0---0---h3---0---|
|-p0-0-------0--------0--------0-----|----0-------0--------0--------0-----|
  147                                  148            
                        
|------------------------------------|------------------------------------|
|------------------------------------|------------------------------------|
|------------------------------------|------------------------------------|
|--------0-------0-h2-----2-p0-----0-|--------0-------0-h2-----2-p0-----0-|
|------0---h3--3--------3---p0---0---|------0---h3--3--------3--------3---|
|-h3-3-------3--------3-----p0-0-----|-h3-3-------3--------3--------3-----|
  149                                  150   

|------------------------------------|------------------------------------|
|------------------------------------|------------------------------------|
|------------------------------------|------------------------------------|
|--------0-------0-h2-----0-h3-----0-|-h2-----0-p0----0--------0--------0-|
|------0---h3--3--------3--------3---|------3-------3---p0---0---h3---0---|
|-p0-0-------0--------0--------0-----|----0-------0--------0--------0-----|
  151                                  152           
                        
|------------------------------------|------------------------------------|
|------------------------------------|------------------------------------|
|------------------------------------|------------------------------------|
|--------0-------0-h2-----2-p0-----0-|--------0-------0-h2-----2-p0-----0-|
|------0---h3--3--------3---p0---0---|------0---h3--3--------3--------3---|
|-h3-3-------3--------3-----p0-0-----|-h3-3-------3--------3--------3-----|
  153                                  154                          

|------------------------------------|------------------------------------|
|------------------------------------|------------------------------------|
|------------------------------------|------------------------------------|
|--------0-------0-h2-----0-h3-----0-|-h2-----0-p0----0--------0--------0-|
|------0---h3--3--------3--------3---|------3-------3---p0---0---h3---0---|
|-p0-0-------0--------0--------0-----|----0-------0--------0--------0-----|
  155                                  156
                        
|------------------------------------|------------------------------------|
|------------------------------------|------------------------------------|
|------------------------------------|------------------------------------|
|--------0-------0-h2-----2-p0-----0-|--------0-------0-h2-----2-p0-----0-|
|------0---h3--3--------3---p0---0---|------0---h3--3--------3--------3---|
|-h3-3-------3--------3-----p0-0-----|-h3-3-------3--------3--------3-----|
  157                                  158    

|------------------------------------|------------------------------------|
|------------------------------------|------------------------------------|
|------------------------------------|------------------------------------|
|--------0-------0-h2-----0-h3-----0-|-h2-----0-p0----0--------0--------0-|
|------0---h3--3--------3--------3---|------3-------3---p0---0---h3---0---|
|-p0-0-------0--------0--------0-----|----0-------0--------0--------0-----|
  159                                  160           
                        
|------------------------------------|------------------------------------|
|------------------------------------|------------------------------------|
|------------------------------------|------------------------------------|
|--------0-------0-h2-----2-p0-----0-|--------0-------0-h2-----2-p0-----0-|
|------0---h3--3--------3---p0---0---|------0---h3--3--------3--------3---|
|-h3-3-------3--------3-----p0-0-----|-h3-3-------3--------3--------3-----|
  161                                  162           

|------------------------------------|------------------------------------|
|------------------------------------|------------------------------------|
|------------------------------------|------------------------------------|
|--------0-------0-h2-----0-h3-----0-|-h2-----0-p0----0--------0--------0-|
|------0---h3--3--------3--------3---|------3-------3---p0---0---h3---0---|
|-p0-0-------0--------0--------0-----|----0-------0--------0--------0-----|
  163                                  164
                        
|------------------------------------|------------------------------------|
|------------------------------------|------------------------------------|
|------------------------------------|------------------------------------|
|--------0-------0-h2-----2-p0-----0-|--------0-------0-h2-----2-p0-----0-|
|------0---h3--3--------3---p0---0---|------0---h3--3--------3--------3---|
|-h3-3-------3--------3-----p0-0-----|-h3-3-------3--------3--------3-----|
  165                                  166   

|------------------------------------|------------------------------------|
|------------------------------------|------------------------------------|
|------------------------------------|------------------------------------|
|--------0-------0-h2-----0-h3-----0-|-h2-----0-p0----0--------0--------0-|
|------0---h3--3--------3--------3---|------3-------3---p0---0---h3---0---|
|-p0-0-------0--------0--------0-----|----0-------0--------0--------0-----|
  167                                  168

VII
|------------------------------------|
|------------------------------------|
|------------------------------------|
|--------0---------------------------|
|------0---h3------------------------|
|-h3-3-------------------------------|
  169 

************************************

| /   slide up
| \   slide down
| h   hammer-on
| p   pull-off
| ~   vibrato
| +   harmonic
| x   Mute note
| b   Bend
| pb  Pre-bend
| br  Bend release
| pbr Pre-bend release
| brb Bend release bend

************************************
Добавлено: 11.12.2015
Вам также может быть интересно:
Другие материалы по этой песне:
  • Аккорды и текст

Страница создана 11.12.2015
http://primanota.ru/kaki-king/trying-to-speak-i-chords.htm
Привет, Гость.
Предлагаем пройти революционный курс по гитаре.
Подарок от PrimaNota.Ru, забирай!