PrimaNota.ru - самый крупный в мире бесплатный архив песенных текстов, аккордов, табулатур и нот


Kaki King - No True Masterpiece Will Ever Be Complete - таба, видео

Регистрация Запомнить меня
Войти через:  Facebook Google Twitter Vk Yandex Mail.ru

Kaki King - No True Masterpiece Will Ever Be Complete - таба, видео

Печатать
Просмотров: 142
Уроки эстрадного вокала в Санкт-Петербурге
KAKI KING
"No True Masterpiece Will Ever Be Complete"
From the album "Glow" (2012)

Tuning: D# G C G A# D
Tempo: 138 bpm
3/4 Time

[0:03] Theme A (played the same each time)
  Q  E E Q    E E E E Q    Q  E E Q    Q  E E E E
|-----------|-----0------|-----------|------------|
|-0------2--|-2S4---4-7--|-7------4--|-2----2S4---|
|----0------|------------|----0------|----0-------|
|------0----|------------|------0----|----------0-|
|-----------|------------|-----------|------------|
|-0------2--|-2S4-----7--|-6------4--|-2----------|


  E  E E E Q    E E E E Q    Q  E E Q    Q  E E E E
|------0------|-----0------|-----------|------------|
|-0------0-2--|-2S4---4-7--|-7------4--|-2----2S4---|
|----0--------|------------|----0------|----0-------|
|-------------|------------|------0----|----------0-|
|-------------|------------|-----------|------------|
|-0--------2--|-2S4-----7--|-6------4--|-2----------|


  Q  E E Q    Q  E E Q    Q  E E Q    Q  E E Q
|-8------5--|-3---------|-----------|--------0---|
|-----------|--------5--|-4------2--|-0----------|
|----0------|----0------|----0------|----0-------|
|------0----|------0----|------0----|------0-----|
|-----------|-----------|-----------|------------|
|-0------2--|-0------6--|-5------4--|-2----------|


  Q  E E Q    E E E E Q    Q  E E Q    Q  E E Q
|-----------|-----0------|-----------|------------|
|-0------2--|-2S4---4-7--|-7------4--|-2----2S4---|
|----0------|------------|----0------|----0-------|
|------0----|------------|------0----|------------|
|-----------|------------|-----------|------------|
|-0------2--|-2S4-----7--|-6------4--|-2----------|



[0:24] Theme B (played with variations each time)
   E  E  E  E  E  E   E E E E E E   E E E E E E   E E E E E E
|-------------------|---------0---|---------0---|--------------|
|----------10-------|-------5---0-|-------2---2-|-------0------|
|-------10----10----|-----5-------|-----1-------|-----1---0----|
|----10----------10-|---5---------|---2---------|---2-------2--|
|-------------------|-------------|-------------|--------------|
|-10----------------|-5-----------|-2-----------|-2------------|


   E  E  E  E  E  E   E E E E E E   E E E E E E   E E E E E E
|-------------------|---------0---|---------0---|---------0----|
|----------10-------|-----5-----0-|-------2---2-|-------0---0--|
|-------10----10----|-------5-----|-----1-------|-----1--------|
|----10----------10-|---5---------|---2---------|---2----------|
|-------------------|-------------|-------------|--------------|
|-10----------------|-5-----------|-2-----------|-2------------|


  E E E E E E   E E E E E E    E  E E E E  E   E E E E E E
|---------0---|-------------|---------0------|-------0------|
|-------0---0-|-------0-----|-------9---9----|-----3---3----|
|-----0-------|-----0---0---|----10-------10-|---5-------5--|
|---2---------|---2-------2-|-10-------------|-5------------|
|-------------|-------------|----------------|--------------|
|-0-----------|-0-----------|----------------|--------------|


[0:39] Play Theme A Again



[1:01] Theme B Variation
   E  E  E  E  E  E   E E E E E E   E E E E E E   E E E E E E
|-------------------|---------0---|-----1---0---|-----1---0----|
|----------10-------|-----5-----0-|-------2---0-|-------2---0--|
|-------10----10----|-------5-----|---1---------|---1----------|
|----10----------10-|---5---------|-------------|--------------|
|-------------------|-------------|-------------|--------------|
|-10----------------|-5-----------|-2-----------|-2------------|


   E  E  E  E  E E    E E E E E E      E E E E E E   E E E E E E
|-10----------------|-------5--------|-----1---0---|-----1---0------|
|----10----10-------|---------5------|-------2---0-|-------2---0----|
|-------10-------0--|-----5-----0----|---1---------|---1------------|
|-------------10----|---5------------|-------------|----------------|
|-------------------|----------------|-------------|----------------|
|-10----------------|-5--------------|-2-----------|-2--------------|


  E E E E E E   E E E E E E    E  E E E E  E   E E E E E E
|-----1---0---|-----1---0---|---------0------|-------0------|
|-------2---0-|-------2---0-|-------9---9----|-----3---3----|
|---0---------|---0---------|----10-------10-|---5-------5--|
|-------------|-------------|-10-------------|-5------------|
|-------------|-------------|----------------|--------------|
|-0-----------|-0-----------|----------------|--------------|



[1:16] Theme C
    E E E E E E   E E E E E E   E E E E E E   E E E E E E
||------0---0---|-----0---0---|-----0---0---|-----0---0----||
||o-----0---0---|-----0---0---|-----0---0---|-----0---0---o||
||----0---0---0-|---0---0---0-|---0---0---0-|---0---0---0--||
||--------------|-------------|-------------|--------------||
||o-------------|-------------|-------------|-------------o||
||--4-----------|-7-----------|-0-----------|-7------------||


  E E E E E E   E E E E E E   E E E E E E   E E E E E E
|-----0---0---|-----0---0---|-----0---0---|-----0---0----|
|-----0---0---|-----0---0---|-----7---7---|-----7---7----|
|---0---0---0-|---0---0---0-|---0---0---0-|---0---0---0--|
|-------------|-------------|-------------|--------------|
|-------------|-------------|-------------|--------------|
|-4-----------|-7-----------|-0-----------|-7------------|


  E E E E E E   E E E E E E   E E E E E E   E E E E E E
|-----0---0---|-----0---0---|-----0---0---|-----0---0----|
|-----4---4---|-----4---4---|-----7---7---|-----7---7----|
|---0---0---0-|---0---0---0-|---0---0---0-|---0---0---0--|
|-------------|-------------|-------------|--------------|
|-0-----------|-------------|-------------|--------------|
|-------------|-7-----------|-0-----------|-7------------|


  E E E E E E   H.        E E E E E E   H.
|-5p0-----0---|---------|-1p0---------|-------|
|-----5p0---0-|---------|-----2---0---|-------|
|-------------|---------|-------2---0-|-------|
|-------------|---------|-------------|-------|
|-------------|---------|-------------|-------|
|-5-----------|-0-------|-2-----------|-0-----|


  E E E E E E   Q  Q  Q    H.        +H      Q
|-5p0-----0---|-------0--|---------|---------0--|
|-----5p0---0-|----0-----|-2-------|-(2)--------|
|-------------|----------|-0-------|-(0)--------|
|-------------|----------|---------|------------|
|-------------|----------|---------|------------|
|-5-----------|-0--------|-2-------|-(2)--------|


[1:48] Play Theme A Again



[2:08] Theme B Variation
   E  E  E  E  E  E   E E E E E E   E E E E E E   E E E E E E
|-------------------|---------0---|-----1---0---|-----1---0----|
|----------10-------|-----5-----0-|-------2---0-|-------2---0--|
|-------10----10----|-------5-----|---1---------|---1----------|
|----10----------10-|---5---------|-------------|--------------|
|-------------------|-------------|-------------|--------------|
|-10----------------|-5-----------|-2-----------|-2------------|


   E  E  E  E E E   E E E E E E   E E E E E E   E E E E E E
|-10--------------|-5-------0---|-----1---0---|-----1---0----|
|----10----10---0-|---5---5---0-|-------2---0-|-------2---0--|
|-------10----0---|-----5-------|---1---------|---1----------|
|-----------------|-------------|-------------|--------------|
|-----------------|-------------|-------------|--------------|
|-10--------------|-5-----------|-2-----------|-2------------|


  E E E E E E   E E E E E E    E  E E E Q    E E E E E E
|-----1---0---|-----1---0---|---------0----|-------0------|
|-------2---0-|-------2---0-|-------9---0--|-----3---3----|
|---0---------|---0---------|----10--------|---5-------5--|
|-------------|-------------|-10-----------|-5------------|
|-------------|-------------|--------------|--------------|
|-0-----------|-0-----------|--------------|--------------|



[2:24] Theme C Variation
    E S S E E E E   E S S E E E E   E S S E E E E   E S S E E E E
||----------0-----|---------0-----|---------0-----|---------0------||
||o-------5---5---|-------5---5---|-------5---5---|-------5---5---o||
||------7-------7-|-----7-------7-|-----7-------7-|-----7-------7--||
||----7-----------|---7-----------|---7-----------|---7------------||
||o-0-------------|---------------|---------------|---------------o||
||----------------|-7-------------|-0-------------|-7--------------||


    E S S E E E E   E S S E E E E   E S S E E E E   E S S E E E E
||----------0-----|---------0-----|---------0-----|---------0------||
||o-------7---7---|-------7---7---|-------7---7---|-------7---7---o||
||------7-------7-|-----7-------7-|-----7-------7-|-----7-------7--||
||----7-----------|---7-----------|---7-----------|---7------------||
||o-0-------------|-7-------------|---------------|---------------o||
||----------------|---------------|-0-------------|-7--------------||


  E E E E E E   H.        E E E E E E   H.
|-5p0-----0---|---------|-1p0---------|-------|
|-----5p0---0-|---------|-----2---0---|-------|
|-------------|---------|-------2---0-|-------|
|-------------|---------|-------------|-------|
|-------------|---------|-------------|-------|
|-5-----------|-0-------|-2-----------|-0-----|


  E E E E E E   Q  Q  Q    H.        +H.
|-5p0---------|-------0--|---------|--------|
|-----5p0-----|----0-----|-2-------|-(2)----|
|---------5p0-|----------|-0-------|-(0)----|
|-------------|----------|---------|--------|
|-------------|----------|---------|--------|
|-5-----------|-0--------|-2-------|-(2)----|



[2:55] Theme A
  Q  E E Q    E E E E Q    Q  E E Q    Q  E E E E
|-----------|-----0------|-----------|------------|
|-0------2--|-2S4---4-7--|-7------4--|-2----2S4---|
|-----------|------------|----0------|----0-------|
|-----------|------------|------0----|----------0-|
|-----------|------------|-----------|------------|
|-0------2--|-2S4-----7--|-6------4--|-2----------|


  E  E E E Q    E E E E Q    Q  E E Q    Q  E E E E
|------0------|-----0------|-----------|------------|
|-0------0-2--|-2S4---4-7--|-7------4--|-2----2S4---|
|----0--------|------------|----0------|----0-------|
|-------------|------------|------0----|----------0-|
|-------------|------------|-----------|------------|
|-0--------2--|-2S4-----7--|-6------4--|-2----------|


  Q  E E Q    Q  E E Q    Q  E E Q    Q  E E Q
|-8------5--|-3---------|-----------|--------0---|
|-----------|--------5--|-4------2--|-0----------|
|----0------|----0------|----0------|----0-------|
|------0----|------0----|------0----|------0-----|
|-----------|-----------|-----------|------------|
|-0------2--|-0------6--|-5------4--|-2----------|


  Q  E E Q    E E E E Q    Q  E E Q    Q  E E Q     H.
|-----------|-----0------|-----------|------------|------|
|-0------2--|-2S4---4-7--|-7------4--|-2----2S4---|------|
|----0------|------------|----0------|----0-------|------|
|------0----|------------|------0----|------------|------|
|-----------|------------|-----------|------------|------|
|-0------2--|-2S4-----7--|-6------4--|-2----------|-0----|



Duration Legend
---------------
W - whole; H - half; Q - quarter; E - 8th; S - 16th; T - 32nd; X - 64th; a - acciaccatura
+ - note tied to previous; . - note dotted; .. - note double dotted
Uncapitalized letters represent notes that are staccato (1/2 duration)
Irregular groupings are notated above the duration line
Duration letters will always appear directly above the note/fret number it represents the
duration for.  Duration letters with no fret number below them represent rests.  Multi-
bar rests are notated in the form Wxn, where n is the number of bars to rest for.  Low
melody durations appear below the staff

Misc Legend
-----------
 |  - bar
||  - double bar
||o - repeat start
o|| - repeat end
*|  - double bar (ending)
 :  - bar (freetime)
 $  - Segno
 &  - Coda
Tempo markers -  = BPM(8/16=s8/s16), where s8 = swing 8ths, s16 = swing 16ths
Добавлено: 19.06.2016
Другие материалы по этой песне:
  • Аккорды и текст

Страница создана 19.06.2016
http://primanota.ru/kaki-king/no-true-masterpiece-will-ever-be-complete-chords.htm
Привет, Гость.
Предлагаем пройти революционный курс по гитаре.
Подарок от PrimaNota.Ru, забирай!