PrimaNota.ru - самый крупный в мире бесплатный архив песенных текстов, аккордов, табулатур и нот


Kaki King - I Never Said I Love You - таба, видео

Регистрация Запомнить меня
Войти через:  Facebook Google Twitter Vk Yandex Mail.ru

Kaki King - I Never Said I Love You - таба, видео

Печатать
Просмотров: 127
Авторы музыки: Kaki King
Авторы текста: Kaki King
---------------------------------------------------------------------------
                   I never said I love you - Kaki King
---------------------------------------------------------------------------
Tabbed by: Samantha Leibel
Email: count.yellow.highway.lines@hotmail.com

Tuning: standard

This tab is mostly done, the basics are here. I thought I would post it anyway, and you 
use your guitar playing skills to embellish it, and
make it your own.  You can also use the chords Em and Bm. Enjoy.

Intro:

e|-2-2s9--------------------2-2s9----------5-4-0-2-5-4---2-2s9--------3-1-1|
B|-------8-0-3-------3-------------8-0-3----------------------8-0-3--------|
G|--------------4--4---4-----------------4--------------------------3------|
D|-------------------------------------------------------------------------|
A|-------------------------------------------------------------------------|
E|0-----------------------0----------------------------0-------------------|

e|---------2-5-----5-------------4-----------------------------------------|
B|-5-5-3-5-----3---3---3-3-2-3-5---2---------------------------------------|
G|---------------3-3-----------------4-------------------------------------|
D|-------------------------------------------------------------------------|
A|-------------------------------------------------------------------------|
E|-------------------------------------------------------------------------|

Singing Starts in this section (Repeat intro as needed)

e|-2-2s9------------5p4-0-2-4-4----2-2s9---------2v----2-2s9---------3-1-1-|
B|--------8-0-3---------------3----------8-0-3---------------8-0-3---------|
G|--------------4-------------4----------------4-------------------3-------|
D|-------------------------------------------------------------------------|
A|-------------------------------------------------------------------------|
E|-------------------------------------------------------------------------|

e|---------2-5-----5------------4------------------------------------------|
B|-5-5-3-5-----3---3--3-3-2-3-5---2----------------------------------------|
G|---------------3-3----------------4--------------------------------------|
D|-------------------------------------------------------------------------|
A|-------------------------------------------------------------------------|
E|-------------------------------------------------------------------------|

Lyrics:

You're so beautiful, so strange, so lovely,
That's the truth.
But if you were the one, baby, you'd've heard it by now;
But I never said I love you

You are a dream-come-true for someone,
But not for me.
Still, can't we have fun, darling?
I can't say what I don't mean
You give me more than I can contain
It hurts to know the truth,
But this will never go your way
I never said I love you.

Sweet thing, come to me
Sweet thing, come to me
Добавлено: 09.03.2012
Другие материалы по этой песне:
  • Аккорды и текст

Страница создана 09.03.2012
http://primanota.ru/kaki-king/i-never-said-i-love-you-chords.htm
Привет, Гость.
Предлагаем пройти революционный курс по гитаре.
Подарок от PrimaNota.Ru, забирай!