PrimaNota.ru - самый крупный в мире бесплатный архив песенных текстов, аккордов, табулатур и нот


Kaki King - Fortuna Ending - таба, видео

Регистрация Запомнить меня
Войти через:  Facebook Google Twitter Vk Yandex Mail.ru

Kaki King - Fortuna Ending - таба, видео

Печатать
Просмотров: 99
Artist: Kaki King
Album: Everybody Loves You
Song: Fortuna

I^Òve looked around for awhile and haven^Òt seen any Kaki
King tabs. She^Òs an amazing guitarist, but her alternate
tuning makes it difficult to dissect her music. This is
about the closest I^Òve come to doing so thus far. This is
the ending to the last track, "Fortuna". It^Òs a lot of fun
to play/hum/meow to, so enjoy. This is my first tab, so
cut me some slack. Email me with comments,
darktemplar006@hotmail.com
-Shane Vann-Shirley

I tabbed it in standard tuning...take THAT Kaki King!
e--------------------------------------------------------
b--------5----5-------5---7---8--8-8p7-------------------
g------6----6------6----------4---------9----------------
d---7-----------6-------------5-------------8------------
a-------------------------------------------9------------
e--------------------------------------------------------


----------------------2----4---5----5p3------------------
-------5---2p3--------3--------3--------3---------5------
----------------------2--------3----------3-3s6----------
----------------0--------------3--3----------------------
---------------------------------------------------------
---------------------------------------------------------


-------5---5---7----4-------4h5p4------------------------
-------5------------5--------------5---------------------
-------6------------4---4------------4-------------------
---------------------------------------------------------
---------------------------------------------------------
---------------------------------------------------------

     
Добавлено: 07.11.2013
Другие материалы по этой песне:
  • Аккорды и текст

Страница создана 07.11.2013
http://primanota.ru/kaki-king/fortuna-ending-chords.htm
Привет, Гость.
Предлагаем пройти революционный курс по гитаре.
Подарок от PrimaNota.Ru, забирай!