PrimaNota.ru - самый крупный в мире бесплатный архив песенных текстов, аккордов, табулатур и нот


Kaki King - First Brain - таба, видео

Регистрация Запомнить меня
Войти через:  Facebook Google Twitter Vk Yandex Mail.ru

Kaki King - First Brain - таба, видео

Печатать
Просмотров: 142
Авторы музыки: Kaki King
Авторы текста: Kaki King
I had someone from a forum help me give part of the song, so I decided to tab out some 
of it! Here it is! Use videos to help  you with the beat. It's a pretty simple song. THIS 
IS INCOMPLETE.
Chords/tableture/patterns:
E|--------5----------5------------5-x--x-------|
A|------7---7------7---7--------5---x--x-------|
E|----8------8---8-------8----5-----x--x-------|
C|--5----------5------------5-------x--x-------|
F|----------------------------------x--x-------|
D|----------------------------------x-0x-------|

E|--------3----------3------------3-x--x-------|
A|------5---5------5---5--------3---x--x-------|
E|----6------6---6-------6----3-----x--x-------|
C|--3----------3------------3-------x--x-------|
F|----------------------------------x--x-------|
D|----------------------------------x-0x-------|
Добавлено: 29.03.2012
Другие материалы по этой песне:
  • Аккорды и текст

Страница создана 29.03.2012
http://primanota.ru/kaki-king/first-brain-chords.htm
Привет, Гость.
Предлагаем пройти революционный курс по гитаре.
Подарок от PrimaNota.Ru, забирай!