PrimaNota.ru - самый крупный в мире бесплатный архив песенных текстов, аккордов, табулатур и нот


Kaizers Orchestra - Knekker Deg Til Sist - аккорды и текст, таба, видео

Регистрация Запомнить меня
Войти через:  Facebook Google Twitter Vk Yandex Mail.ru

Kaizers Orchestra - Knekker Deg Til Sist - аккорды и текст, таба, видео

Печатать
Просмотров: 143
Авторы музыки: Janove Ottesen, Geir Zahl
Авторы текста: Janove Ottesen, Geir Zahl
Knekker Deg Til Sist
Kaizers Orchestra
Second guitar riff/intro (follow chords on verse and the first two choruses)

E|---------------------------------------------------|
B|---------------------------------------------------|
G|---------------------------------------------------|
D|-----------------------------0--3--6----3--6--7----|
A|--0----4--5--7----4--7--8--------------------------|
E|---------------------------------------------------|

1st guitar riff: (repeat through verse and follow chords)
     Am    Em    Am    Em    Am    Em
E|--------------------------------------|
B|--------------------------------------|
G|--------------------------------------|
D|--7--7--7--7--7--7--7--7--7--7--7--7--|
A|--7--7--7--7--7--7--7--7--7--7--7--7--|
E|--5--5--0--0--5--5--0--0--5--5--0--0--|

INTRO x2
Verse:
Am/Em
Hei der, ser du ken som står her
Am/Em
Ser du kem som nå ler
Am/Em
prøv å gjett ein gong og om
Am/Em
Ditt smil ringe nogen bjeller
Am/Em
Det e slutt på hellet
Am/Em
når du hørre fanden telle ner

Pre Chorus:
A
Di knekke deg
A
Di knekke deg
G
Kan hørra der riste
D
Kan hørra det briste!

Chorus:
A
Ditt lokomotiv har passert, ingen her e kurert
A                          D                C
Alt går mot ein ende og te slutt får du ein brist
A
Knekke deg te sist
A
Og ditt motiv e fallert, din intensjon e parkert
A                               D        C
Kem e det nå som får ein brist (Bom didi bom didi)
D             Am
Knekke deg te sist

2nd guitar riff/intro.

Verse:
Am/Em
Bli med en siste tur i hagen
Am/Em
Dette her e dagen
Am/Em
trekk ein kanin opp av hatten og
Am/Em
Legg ner dine blomster
G
og ro i land
D                 C          A
for denne steinen bære ditt navn

Pre Chorus:

Chorus:

Solo:

E|--------------10--8---------|
B|---------------------10--8--|
G|----------------------------|
D|--7--7--7--7----------------|
A|----------------------------|
E|----------------------------|

E|-----------------------------------------|
B|-----------------------------------------|
G|-----------------------------------------|
D|-----------------------------------------|
A|--0--0--0--0--3--0--0--7--0--5--0--3--0--|
E|-----------------------------------------|

E|--------------------10--8-------------|
B|---------------------------10--8--10--|
G|--------------------------------------|
D|--------7--7--7--7--------------------|
A|--0/5---------------------------------|
E|--------------------------------------|

(Silent) Verse:

Hei der, ser du ken som står her

Ser du kem som nå ler

prøv å gjett ein gong og om

Ditt smil ringe nogen bjeller

Det e slutt på hellet

når du hørre fanden telle ner

(Silent) Pre Chorus:

Di knekke deg aaahh

Di knekke deg

Aha, Aha (All instruments back)

Chorus. x2
2nd guitar riff/intro during the last chorus
Добавлено: 26.04.2014
Другие материалы по этой песне:
  • Аккорды и текст

Страница создана 05.06.2012
http://primanota.ru/kaizers-orchestra/knekker-deg-til-sist-chords.htm
Привет, Гость.
Предлагаем пройти революционный курс по гитаре.
Подарок от PrimaNota.Ru, забирай!