PrimaNota.ru - самый крупный в мире бесплатный архив песенных текстов, аккордов, табулатур и нот


Kaizers Orchestra - Hevnervals - таба, видео

Регистрация Запомнить меня
Войти через:  Facebook Google Twitter Vk Yandex Mail.ru

Kaizers Orchestra - Hevnervals - таба, видео

Печатать
Просмотров: 100
Intro:
e|---------------------------------------------------------|
B|---------------------------------------------------------|
G|---------------------------------------------------------|
D|------4-3-4--5--4-7--5--2-3-4-0---2-4-2-0----0-2-0-------|
A|--2---------------------------------------4---------3-2--|
E|---------------------------------------------------------|

e|---------------------------------------------------------|
B|---------------------------------------------------------|
G|---------------------------------------------------------|
D|------4-3-4--5--4-7--5--2-3-4-0---2-4-2-0----0-2-0-------|
A|------------------------------------------4---------3-2--|
E|---------------------------------------------------------|

       Bm
Eg har stirt gjennom sprinklene et år
       A
Eg har kjetting mellom beina når eg går
      Bm
Eg er feil mann på feil plass til feil tid
       A
Det er ingen tvil, det er sjebnen som rår

Eg blei spurt om å ta hånd om Roselyn
På St.Peters Plass en kveld i Aberdeen
På et tidspunkt såg det lyst ut for oss to
men lampen gjekk tom for parafin

Kryss fingrer og heng kors i halsen
Fold dine hender hvis du trur de har
meir makt enn denne valsen

Spør meg igjen om to år
og det er et annet svar du vil få
For eg sa det var to mann i den dansen
men det kom an på kem som såg

Hevnen er søt for den som venter
Eg kan navnet på de involverte
Et par av de er informerte
De er ikkje lenger meg bekjente

   Bm
Du ser når lynet slår ner
   A                  Bm
Du ser når lynet slår ner
Bm
Legg deg på kne, sjå mot himmelen og be
   A                  Bm
Du ser når lynet slår ner

Outro:
e|----------------------------------------------------|
B|----------------------------------------------------|
G|----------------------------------------------------|
D|------4-3-4--5--4-7--5--2-3-4-0---2-4-2-0-----------|
A|--2---------------------------------------4----3-2--|
E|----------------------------------------------------|

e|------------------------------------------------------------------|
B|------------------------------------------------------------------|
G|------------------------------------------------------------------|
D|------4-3-4--5--4-7--5--2-3-4-0---2-4-2-0-------------------------|
A|------------------------------------------4---3-33333333-3-3-3-2--|
E|------------------------------------------------------------------|

Добавлено: 22.06.2012
Другие материалы по этой песне:
  • Аккорды и текст

Страница создана 22.06.2012
http://primanota.ru/kaizers-orchestra/hevnervals-chords.htm
Привет, Гость.
Предлагаем пройти революционный курс по гитаре.
Подарок от PrimaNota.Ru, забирай!