PrimaNota.ru - самый крупный в мире бесплатный архив песенных текстов, аккордов, табулатур и нот


Kaizers Orchestra - Bonn Fra Helvete - таба, видео

Регистрация Запомнить меня
Войти через:  Facebook Google Twitter Vk Yandex Mail.ru

Kaizers Orchestra - Bonn Fra Helvete - таба, видео

Печатать
Просмотров: 118
Kaizers Orchestra – Bønn Fra Helvete



Gtr. 1

   F     Bb    C     F#    B     C#     
E--1--|-----|-----|-----|-----|-----|
B--1--|-----|-----|-----|-----|-----|
G-----|--3--|--5--|----—|-----|-----|
D-----|--3--|--5--|-----|-----|--—--|
A-----|-----|-----|-----|-----|-----|
E-----|-----|-----|-----|-----|-----|


F
Solå star I Zenith og have henge lågt
F
I Gruvene på 16 e me i samme båt
Bb                   C
Ved foten av fjellet kan du sjå me går
F
I takt me lenker rundt halsen, år etter år

F
Alt me fire av gull å grøn smaragd
F
Havne rett i fanget på Henry blir det sagt
Bb                       C
Det dryppe ikkje på oss. Me trenge ingen potter
F
For Henry er ikkje prest og ingen av oss e klokker


F
Sjøl ikkje Gud
F
Sjøl ikkje Gud
Bb
Nei sjøl ikkje Gud
C
Kan hørra oss når me ber
F
Kan hørra oss når me ber i frå helvete


F#
Ivan la på sprang men kom aldri tebage
F#
Mange før han har prøvd å ta Henry av dage
B                     C#
Og ryktet fortelle at han som står med pisken
...
Er rake motsetningen av en viss kristen



I gruvene på 16 har me budd i 4 år

Men så snart sjansen byr seg slår eg meg ut


Drum-solo


Alt me fire av gull å grøn smaragd

Havne rett i fanget på Henry blir det sagt

Det dryppe ikkje på oss. Me trenge ingen potter

For Henry er ikkje prest og ingen av oss e klokker


F#
Sjøl ikkje Gud
F#
Sjøl ikkje Gud
B
Nei sjøl ikkje Gud
C#
Kan hørra oss når me ber
F#
Kan hørra oss når me ber i frå helvete


Gtr. 2

   0:22         0:27         0:31         0:35
E------------|------------|------------|------------|
B------------|------------|--4---------|------------|
G--6-5-3-5~--|--6-5-3-5~--|----6-5—3~--|--6-5-3-5~--|
D------------|------------|---—--------|------------|
A------------|------------|------------|------------|
E------------|------------|------------|------------|
  0:55
E------------------------------------------|
B------------------------------------------|
G------------------------------------------| 2X 
D---------------------------------------—--|
A------------------1---3--3--1--3/6--6--6--|
E--1----1--1----4--------------------------|
                1:05         1:08         1:12         1:14
E------------|------------|------------|------------|--9--|
B------------|------------|--5---------|------------|--9--|
G------------|--7-6-4-6~--|----7-6—4~--|--7-6-4-6~--|-----|
D------------|------------|---—--------|------------|-----|
A------------|------------|------------|------------|-----|
E------------|------------|------------|------------|-----|

After drum-solo..:

   2:41         2:45         2:48
E----9~--|------8---------|--2-2-2-2--2-2-2-2--2-2-2-2--2-2-2-2--|
B--7-----|----7---7-10~---|------2-2--2-2-2-2--2-2-2-2--2-2-2-2--|
G--------|--9-------------|--------------------------------------|
D--------|---------------—|--------------------------------------|
A--------|----------------|--------------------------------------|
E--------|----------------|--------------------------------------|
   03:34
E------------------------------------------|
B------------------------------------------|
G------------------------------------------| 2X 
D---------------------------------------—--|
A------------------2---4--4--2--4/7--7--7--|
E--2----2--2----5--------------------------|
   03:41
E------------------------------------------|
B------------------------------------------|
G------------------------------------------|
D------------------------3--3--3-—3---2----|
A--2----2--2----5--2---5----------------5--|
E------------------------------------------|
   03:45
E------------------------------------------|
B------------------------------------------|
G------------------------------------------| 
D---------------------------------------—--|
A------------------------------------------|
E--2----2--2----5--2---2--0--2--2—2--0--2--|
   03:48
E------------------------------------------|
B------------------------------------------|
G------------------------------------------|
D------------------------3--3--3-—3---2----|
A--2----2--2----5--2---5----------------5--|
E------------------------------------------|
   03:53
E------------------------------------------|
B------------------------------------------|
G------------------------------------------| 
D---------------------------------------—--|
A------------------------------------------|
E--2----2--2----5--2---2--0--2--2—2--0--2--|


drb89@hotmail.com
Добавлено: 02.06.2012
Другие материалы по этой песне:
  • Аккорды и текст

Страница создана 02.06.2012
http://primanota.ru/kaizers-orchestra/bonn-fra-helvete-chords.htm
Привет, Гость.
Предлагаем пройти революционный курс по гитаре.
Подарок от PrimaNota.Ru, забирай!