PrimaNota.ru - самый крупный в мире бесплатный архив песенных текстов, аккордов, табулатур и нот


Kaizers Orchestra - B n fra helvete - таба, видео

Регистрация Запомнить меня
Войти через:  Facebook Google Twitter Vk Yandex Mail.ru

Kaizers Orchestra - B n fra helvete - таба, видео

Печатать
Просмотров: 79
Bшn Fra Helvete
by Kaizers Orchestra
Album:Ompa Til Du Dшr

Verse 1amp;2, Guitar 1:
E|----------|----------|----------|--|
B|--6-------|----6-6---|--6--6----|--|
G|--5-(16x)-|----3-3---|--3--3----|2x| Also note, Interpretion before Bridge
D|--3-------|----------|----------|--| Is the same just more strokes.
A|----------|----------|----------|--|
E|----------|----------|----------|--|

Verse 1amp;2, Guitar 2:
E|----------|----------|----------|----------|
B|----------|----------|--4-------|----------|
G|6-5-4-5---|-6-5-4-5--|---6-5----|-6-5-4-5--|
D|----------|----------|----------|----------|
A|----------|----------|----------|----------|
E|----------|----------|----------|----------|

Bridge:
E|----------|----------|----------|
B|----------|----------|----------|
G|----------|----------|----------|
D|----------|----------|-1-1------|x2
A|---------1|--3-3-1-3-|----------|
E|1-1-1-4---|----------|----------|

Verse 3, Guitar 1:  Move everything up one note.
E|----------|----------|----------|-----9---|
B|--7-------|---7-7----|--7--7----|----10---|
G|--6-(8x)--|---4-4----|--4--4----|----11---|
D|--4-------|----------|----------|---------|
A|----------|----------|----------|---------|
E|----------|----------|----------|---------|

Verse 3, Guitar 2:
E|----------|----------|----------|
B|----------|----------|--5-------|
G|7-6-5-6---|-7-6-5-6--|---7-6----|
D|----------|----------|----------|
A|----------|----------|----------|
E|----------|----------|----------|
Here is where the guitare stops,and thiese parts comes in.

1:19 : 1:48 (Gruvene pе 16) - 1:49 : 2:25 (Drum Part)

''Alt de fyre neri sjaktе''

E|----9-----|----9-----|---9------|
B|---10-----|--10---10-|--10------|
G|---11-----|11---11---|--11------|
D|----------|----------|----------|
A|----------|----------|----------|
E|----------|----------|----------|





Outro:

E|----------|----------|-------|--|----------|----------|----------|
B|----------|----------|-------|--|----------|----------|----------|
G|----------|----------|-------|--|----------|----------|----------|
D|----------|----------|-2-2---|x2|----------|-3-3-3-3-2|----------|
A|----------|2-4-4-2-4-|-------|--|2--2-2-5-2|2---------|----------|
E|-2-2-2-5--|----------|-------|--|----------|----------|2-2-2-2-2-|

E|----------|----------|----------|----------|----------|-------------|
B|----------|----------|----------|----------|----------|-------------|
G|----------|----------|----------|----------|----------|-------------|
D|----------|----------|----------|-3-3-3-3-2|----------|-------------|
A|----------|----------|2--2-2-5-2|2---------|----------|-------------|
E|5-2-0-2---|-2-0-2----|----------|----------|2-2-2-2-2-|5-2-0-2-2-0-2|

Добавлено: 07.02.2014
Другие материалы по этой песне:
  • Аккорды и текст

Страница создана 07.02.2014
http://primanota.ru/kaizers-orchestra/b-n-fra-helvete-chords.htm
Привет, Гость.
Предлагаем пройти революционный курс по гитаре.
Подарок от PrimaNota.Ru, забирай!