PrimaNota.ru - самый крупный в мире бесплатный архив песенных текстов, аккордов, табулатур и нот


Kaiser Chiefs - Na Na Na Na Na - таба, бас-таба, видео

Регистрация Запомнить меня
Войти через:  Facebook Google Twitter Vk Yandex Mail.ru

Kaiser Chiefs - Na Na Na Na Na - таба, бас-таба, видео

Печатать
Просмотров: 210
Kaiser Chiefs- Na Na Na Na Na
Fantastic song and perfect set opener by the hottest new band in Britain.  The album entitled
'Employment' is out on March 7th in th UK, go buy it!

INTRO
E ----------------------------------------------------|
B ----------------------------------------------------|
G ----------------------------------------------------|
D --------2-2--------2-2--------2-2------2-2----------|
A ----------------------------------------------------|
E ---0-0--------0-0--------0-0-------0-0--------------|

(piano only)
Na na na na na
Na na na na na
Intro
Na na na na na
Na na na na na

A5(hold)
It does not move me
A5(hold)
It does not get me going at all

Intro
Na na na na na
Na na na na na

A5(hold)
It does not shift me
A5(hold)
Shes not the kind of thing that I like

Intro
Na na na na na
Na na na na na

B5(strum)
It does not move me
A5(strum)
Its not the kind of thing that I like

Intro
Na na na na na
Na na na na na

A5(hold)
Shes does not listen
A5(hold)
Shes too wrapped up with all of her things

Intro
Na na na na na
Na na na na na

A5(hold)
This does not get to me
A5(hold)
Cos shes not the kind of girl that I like

Intro
Na na na na na
Na na na na na

B5(strum)
It does not move me
A5(strum)
Shes not the kind of girl that I like

Intro
Na na na na na
Na na na na na

Solo
E --------------------------------------------------------------------------|
B -------------------9~--9~--9~--9~--9--------------------------------------|
G ----9--9----11------------------------------11--9--11--9~-----------------|
D --------------------------------------------------------------------------|
A --------------------------------------------------------------------------|
E --------------------------------------------------------------------------|

E --------------------------------------------------------------------------|
B -------------------9~--9~--9~--12--9--------------------------------------|
G ----9--9----11------------------------------11--9--11--9~-----------------|
D --------------------------------------------------------------------------|
A --------------------------------------------------------------------------|
E --------------------------------------------------------------------------|

E ---------------------------------------------------------------------------|
B ---------------------------------------------------------------------------|
G ----9--9--9------------9-----------9------------9-----------11--9--11--9~--|
D ----------------9--11-----9--11-------9--11------9--11---------------------|
A ---------------------------------------------------------------------------|
E ---------------------------------------------------------------------------|

E --------------------------------------------------------------------------|
B -------------------9~--9~--9~--9~--9--------------------------------------|
G ----9--9----11------------------------------11--9--11--9~-----------------|
D --------------------------------------------------------------------------|
A --------------------------------------------------------------------------|
E --------------------------------------------------------------------------|

B5(strum)
It does not move me
A5(strum)
Its not the kind of thing that I like

Intro
Na na na na na
Na na na na na
Na na na na na
Na na na na na

A5(hold)
It does not move me ( It does not move me)
A5(hold)
Its not the kind of thing that I like

Intro

A5(hold)
It does not shift me (It does not shift me)
A5(hold)
It's not the kind of thing that I like

Intro

B5(strum)
It does not move me
A5(strum)
Its not the kind of thing that I like

Intro
Na na na na na
Na na na na na
Na na na na na
Na na na na na

End on E5(hold)

With thanks for matthew downes for working out the intro
Добавлено: 27.07.2012
Другие материалы по этой песне:

Страница создана 16.03.2012
http://primanota.ru/kaiser-chiefs/na-na-na-na-na-chords.htm
Привет, Гость.
Предлагаем пройти революционный курс по гитаре.
Подарок от PrimaNota.Ru, забирай!