PrimaNota.ru - самый крупный в мире бесплатный архив песенных текстов, аккордов, табулатур и нот


Kaiser Chiefs - Good Days And Bad Days - таба, видео

Регистрация Запомнить меня
Войти через:  Facebook Google Twitter Vk Yandex Mail.ru

Kaiser Chiefs - Good Days And Bad Days - таба, видео

Печатать
Просмотров: 139
--------------------------------------------------------------------------
		Good Days And Bad Days - Kaiser Chiefs
--------------------------------------------------------------------------

Tuning: standard

Intro:

    B
e|----------|
B|--4----4--|
G|--4----4--|
D|--4----4--|
A|--4----4--|
E|--2----2--|  

Or play the B as a barre chord starting at 7 on E string like I've done in the chorus.

Verse:

Follow the...
e|-----------------------|
B|-----------------------|
G|-----------------------|
D|--4--6--4--2--4--6--4--|
A|-----------------------|
E|-----------------------|

  Bad days...  There's good days and bad days
                           B   
e|------------------------------|
B|-------------------------4-4--|
G|--4-------6--6--6--4-----4-4--|
D|-----4----------------4--4-4--|
A|-------------------------2-2--|
E|------------------------------|

Chorus:

   Good days and bad days....
   F#              E           Bm B    G#m  Am  Bm  B    G#m Am
e|-9--9--X-9--X-9--------------7--7-X-X-4-X-5-X--7--7-X-X-4-X-7-|
B|-10-10-X-10-X-10-9-9-X-9-X-9-7--7-X-X-4-X-5-X--7--7-X-X-4-X-7-|
G|-11-11-X-11-X-11-9-9-X-9-X-9-7--8-X-X-4-X-5-X--7--8-X-X-4-X-5-|
D|-11-11-X-11-X-11-9-9-X-9-X-9-9--9-X-X-6-X-7-X-99--9-X-X-6-X-7-|
A|-9--9--X-9--X-9--7-7-X-7-X-7-9--9-X-X-6-X-7-X-99--9-X-X-6-X-7-|
E|-----------------------------7--7-X-X-4-X-5-X-77--7-X-X-4-X-5-|

Something like that, have to listen closely to get the strumming right.

Hey Hey:

e|-------------------------------------------------------------------|
B|-9-10-9-7-9-10-9~-9-10-9-7-9-10-9~-9-10-9-7-9-10-9~-9-10-9-12-10-9-|
G|-------------------------------------------------------------------|
D|-------------------------------------------------------------------|
A|-------------------------------------------------------------------|
E|-------------------------------------------------------------------|

x2 and go back to the B chord at the end (copy of the intro).

Outro:

If you had a different attitude....

Take the second part of the Chorus from the Bm, it's that part played several times.

Bad days....
                       break
e|-9-----------------------------7--------9----7--|
B|-10------------9/--------------7--------10-9-7--|
G|-11------------9/--------------8--------11-9-8--|
D|-11------------9/--------------9--------11-9-9--|
A|-9-------------7/--------------9--------9--7-9--|
E|-------------------------------7-------------7--|
Добавлено: 29.08.2013
Другие материалы по этой песне:
  • Аккорды и текст

Страница создана 29.08.2013
http://primanota.ru/kaiser-chiefs/good-days-and-bad-days-chords.htm
Привет, Гость.
Предлагаем пройти революционный курс по гитаре.
Подарок от PrimaNota.Ru, забирай!