PrimaNota.ru - самый крупный в мире бесплатный архив песенных текстов, аккордов, табулатур и нот


Kaiser Chiefs - Fly On The Wall - таба, видео

Регистрация Запомнить меня
Войти через:  Facebook Google Twitter Vk Yandex Mail.ru

Kaiser Chiefs - Fly On The Wall - таба, видео

Печатать
Просмотров: 90
Авторы музыки: Ricky Wilson, Simon Rix, Nick Baines, Andrew White, Nick Hodgson
Авторы текста: Ricky Wilson, Simon Rix, Nick Baines, Andrew White, Nick Hodgson
I have the intro, bridge and chorus of this song by my ears! So if you have comment of 
this song, just do it please.

Fly on the wall- Kaiser chiefs
Standard tuning
Intro:

E----------------------------------|
B----------------------------------|
G----------------------------------|
D-------5-5------------------------| repeat 2 times
A-7-5-7-------7-5-3-3-3------------|
E----------------------------------|

0:08 to 0:33
E-----------------------------------|
B-----------------------------------|
G-----------------------------------|
D-----------------------b2---2------|
A-0-0-0-0-3-3-3-3-2-2-2----2---2----|
E-----------------------------------|

0:34 to 0:50
E-------------------------------------|
B-------------------------------------|
G-7-7-7-7--5-5-5-5--9-9-9-9--5-5-5-5--|
D-X-X-X-X--X-X-X-X--X-X-X-X--X-X-X-X--|
A-5-5-5-5--3-3-3-3--7-7-7-7--3-3-3-3--|
E-------------------------------------|

Last chord of the chorus is
E--
B-5
G-5
D-5
A-3
E--


After you play the same pattern over again.

But, I don't know the part from 2:06 to 2:59

After you repeat the start sequence 3:00 to 3:15

I don't know how to play the finish at this song.
Добавлено: 11.08.2013
Другие материалы по этой песне:
  • Аккорды и текст

Страница создана 11.08.2013
http://primanota.ru/kaiser-chiefs/fly-on-the-wall-chords.htm
Привет, Гость.
Предлагаем пройти революционный курс по гитаре.
Подарок от PrimaNota.Ru, забирай!