PrimaNota.ru - самый крупный в мире бесплатный архив песенных текстов, аккордов, табулатур и нот


The Kahuna Kings - The First Wave - таба, видео

Регистрация Запомнить меня
Войти через:  Facebook Google Twitter Vk Yandex Mail.ru

The Kahuna Kings - The First Wave - таба, видео

Печатать
Просмотров: 28
  This tab is patterned on the cover uploaded by Bruce Lindquist to YouTube.

                  (strum for 8 measures starting at low volume then increase)
e|--------------5------------------------------------------------------------|
B|--------------5------------------------------------------------------------|
G|--------------6------------------------------------------------------------|
D|--------------7------------------------------------------------------------|
A|--------------7------------------------------------------------------------|
E|--------------5------------------------------------------------------------|


e|----------------------|----------------------|------------5----------------|
B|--------5-5-5-5-------|--------5-5-5-5-------|--3w--------5----------------|
G|------6---------7-6---|------6---------7-6---|--4w--------6----16\a4-------|
D|--7-7---------------7-|--7-7---------------7-|--5w--------7----------------|
A|----------------------|----------------------|-------0a---7----------------|
E|----------------------|----------------------|------------5----------------|


e|----------------------|----------------------|------------5----------------|
B|--------5-5-5-5-------|--------5-5-5-5-------|--3w--------5----------------|
G|------6---------7-6---|------6---------7-6---|--4w--------6----16\a4-------|
D|--7-7---------------7-|--7-7---------------7-|--5w--------7----------------|
A|----------------------|----------------------|-------0a---7----------------|
E|----------------------|----------------------|------------5----------------|


e|--8---8---8---8--|--8---8---8---8--|--10--10--10--10-|--10--10--10--10-----|
B|--8---8---10--8--|--8---8---10--8--|--10--10--12--10-|--10--10--12--10-----|
G|--9---9---10--9--|--9---9---10--9--|--11--11--12--11-|--11--11--12--12-----|
D|--10--10--10--10-|--10--10--10--10-|--12--12--12--12-|--12--12--12--12-----|
A|--10--10---8--10-|--10--10--8---10-|--12--12--10--12-|--12--12--10--12-----|
E|--8---8-------8--|--8---8-------8--|--10--10------10-|--10--10------10-----|


e|---12----------------------------------------------------------------------|
B|---12----------------------------------------------------------------------|
G|---13-------16\a4----------------------------------------------------------|
D|---14----------------------------------------------------------------------|
A|---14----------------------------------------------------------------------|
E|---12----------------------------------------------------------------------|


e|--------9-12-12-12-12-10-9---|-----9-10-12-12-12-12-10-9 ------------------|
B|--10-10-------------------10-|--10-----------------------10----------------|
G|-----------------------------|---------------------------------------------|
D|-----------------------------|---------------------------------------------|
A|-----------------------------|---------------------------------------------|
E|-----------------------------|---------------------------------------------|


e|---7w----------------------------------------------------------------------|
B|---8w--------5-------------------------------------------------------------|
G|---7w--------6------16\a4--------------------------------------------------|
D|-------------7-------------------------------------------------------------|
A|--------0a-----------------------------------------------------------------|
E|---------------------------------------------------------------------------|


e|--------9-12-12-12-12-10-9---|-----9-10-12-12-12-12-10-9 ------------------|
B|--10-10-------------------10-|--10-----------------------10----------------|
G|-----------------------------|---------------------------------------------|
D|-----------------------------|---------------------------------------------|
A|-----------------------------|---------------------------------------------|
E|-----------------------------|---------------------------------------------|

e|---7w----------------------------------------------------------------------|
B|---8w----------------------------------------------------------------------|
G|---7w-----7a--6a--4a--2a---------------------------------------------------|
D|---------------------------------------------------------------------------|
A|---------------------------------------------------------------------------|
E|---------------------------------------------------------------------------|

e|--8---8---8---8--|--8---8---8---8--|--10--10--10--10-|--10--10--10--10-----|
B|--8---8---10--8--|--8---8---10--8--|--10--10--12--10-|--10--10--12--10-----|
G|--9---9---10--9--|--9---9---10--9--|--11--11--12--11-|--11--11--12--12-----|
D|--10--10--10--10-|--10--10--10--10-|--12--12--12--12-|--12--12--12--12-----|
A|--10--10---8--10-|--10--10--8---10-|--12--12--10--12-|--12--12--10--12-----|
E|--8---8-------8--|--8---8-------8--|--10--10------10-|--10--10------10-----|


e|----------------------2w--|---5------------------------------2w------------|
B|---------0w-----0w----2w--|-----7-5--------------7-----------2w------------|
G|----------------------2w--|---------6------------------------2w------------|
D|------0w------0w------4w--|-----------9-7--------------------4w------------|
A|----------------------4w--|---------------9-7-9b---9-7-------4w------------|
E|---0w-------0w--------2w--|----------------------------9-7---2w------------|


e|--------------2w-|-5----------------------------------------|----/4-/7-/10-|
B|-/9-/9-/9-/9--2w-|---7-5------------------------------------|-/5-----------|
G|-/9-/9-/9-/9--2w-|-------6----------------------------------|--------------|
D|--------------4w-|---------9-7------------------------------|--------------|
A|--------------4w-|-------------9-7--9h10--9h10--9h10-9-7----|--------------|
E|--------------2w-|--------------------------------------9-7-|--------------|


e|----------------------|----------------------|--3w--------5----------------|
B|--------5-5-5-5-------|--------5-5-5-5-------|--3w--------5----------------|
G|------6---------7-6---|------6---------7-6---|--4w--------6----16\a4-------|
D|--7-7---------------7-|--7-7---------------7-|--5w--------7----------------|
A|----------------------|----------------------|-------0a---7----------------|
E|----------------------|----------------------|------------5----------------|


e|----------------------|----------------------|--3w--------5----------------|
B|--------5-5-5-5-------|--------5-5-5-5-------|--3w--------5----------------|
G|------6---------7-6---|------6---------7-6---|--4w--------6----16\a4-------|
D|--7-7---------------7-|--7-7---------------7-|--5w--------7----------------|
A|----------------------|----------------------|-------0a---7----------------|
E|----------------------|----------------------|------------5----------------|


e|--8---8---8---8--|--8---8---8---8--|--10--10--10--10-|--10--10--10--10-----|
B|--8---8---10--8--|--8---8---10--8--|--10--10--12--10-|--10--10--12--10-----|
G|--9---9---10--9--|--9---9---10--9--|--11--11--12--11-|--11--11--12--11-----|
D|--10--10--10--10-|--10--10--10--10-|--12--12--12--12-|--12--12--12--12-----|
A|--10--10---8--10-|--10--10--8---10-|--12--12--10--12-|--12--12--10--12-----|
E|--8---8-------8--|--8---8-------8--|--10--10------10-|--10--10------10-----|


e|---12----------------------------------------------------------------------|
B|---12-------------0w----------0w-------------------------------------------|
G|---13----------------------------------------------------------------------|
D|---14---------0w----------0w-----------------------------------------------|
A|---14----------------------------------------------------------------------|
E|---12-----0w----------0w---------------------------------------------------|


e|--8---8---8---8--|--8---8---8---8--|--10--10--10--10-|--10--10--10--10-----|
B|--8---8---10--8--|--8---8---10--8--|--10--10--12--10-|--10--10--12--10-----|
G|--9---9---10--9--|--9---9---10--9--|--11--11--12--11-|--11--11--12--11-----|
D|--10--10--10--10-|--10--10--10--10-|--12--12--12--12-|--12--12--12--12-----|
A|--10--10---8--10-|--10--10--8---10-|--12--12--10--12-|--12--12--10--12-----|
E|--8---8-------8--|--8---8-------8--|--10--10------10-|--10--10------10-----|


e|---12------5---------------------------------------------------------------|
B|---12------5---------------------------------------------------------------|
G|---13------6---------------------------------------------------------------|
D|---14------7---------------------------------------------------------------|
A|---14------7---------------------------------------------------------------|
E|---12------5---------------------------------------------------------------|




************************************

| /   slide up
| \   slide down
| \a  slide down with alternating picking
| h   hammer-on
| a   repeating alternating picking
| w   Use whammy

************************************
Добавлено: 01.12.2015
Другие материалы по этой песне:
  • Аккорды и текст

Страница создана 01.12.2015
http://primanota.ru/kahuna-kings/first-wave-chords.htm
Привет, Гость.
Предлагаем пройти революционный курс по гитаре.
Подарок от PrimaNota.Ru, забирай!