PrimaNota.ru - самый крупный в мире бесплатный архив песенных текстов, аккордов, табулатур и нот


Kagerou - Koi Uta G 2 - таба, видео

Регистрация Запомнить меня
Войти через:  Facebook Google Twitter Vk Yandex Mail.ru

Kagerou - Koi Uta G 2 - таба, видео

Печатать
Просмотров: 113
                                 Koi Uta                                     


                                                                       Kagerou
Guitar 2 (Right)



     W                   W                   W                 
E||-------------------|-------------------|-------------------|
B||-------------------|-------------------|-------------------|
G||-------------------|-------------------|-------------------|
D||-------------------|-------------------|-------------------|
A||-------------------|-------------------|-------------------|
E||-------------------|-------------------|-------------------|


  W                    S  S  S  S S S S E  S S S S S S S  
-------------------|-------------------------------------|
-------------------|--10-10-10-10---8---7--7-7-7-7-7-7-7-|
-------------------|---9--9--9--9---7---6--6-6-6-6-6-6-6-|
-------------------|---7--7--7--7---5---4--4-4-4-4-4-4-4-|
-------------------|-------------------------------------|
-------------------|-------------------------------------|


   S  S  S  S S S S E  S S S S S S S     S  S  S  S S S S E  S S S S S S S  
-------------------------------------|-------------------------------------|
--10-10-10-10---8---7--7-7-7-7-7-7-7-|--10-10-10-10---8---7--7-7-7-7-7-7-7-|
---9--9--9--9---7---6--6-6-6-6-6-6-6-|---9--9--9--9---7---6--6-6-6-6-6-6-6-|
---7--7--7--7---5---4--4-4-4-4-4-4-4-|---7--7--7--7---5---4--4-4-4-4-4-4-4-|
-------------------------------------|-------------------------------------|
-------------------------------------|-------------------------------------|


   S  S  S  S S S S  E   S  S  S  S  S  S  S  
---------------------------------------------|
--10-10-10-10---8---10--10-10-10-15-15-15-15-|
---9--9--9--9---7----9---9--9--9-14-14-14-14-|
---7--7--7--7---5----7---7--7--7-12-12-12-12-|
---------------------------------------------|
---------------------------------------------|


   S  S  S  S S S S E  S S S S S S S     S  S  S  S S S S E  S S S S S S S  
-------------------------------------|-------------------------------------|
--10-10-10-10---8---7--7-7-7-7-7-7-7-|--10-10-10-10---8---7--7-7-7-7-7-7-7-|
---9--9--9--9---7---6--6-6-6-6-6-6-6-|---9--9--9--9---7---6--6-6-6-6-6-6-6-|
---7--7--7--7---5---4--4-4-4-4-4-4-4-|---7--7--7--7---5---4--4-4-4-4-4-4-4-|
-------------------------------------|-------------------------------------|
-------------------------------------|-------------------------------------|


   S  S  S  S S S S E  S S S S S S S  
-------------------------------------|
--10-10-10-10---8---7--7-7-7-7-7-7-7-|
---9--9--9--9---7---6--6-6-6-6-6-6-6-|
---7--7--7--7---5---4--4-4-4-4-4-4-4-|
-------------------------------------|
-------------------------------------|


   S  S  S  S S S S  E   S  S  S  S  S  S  S    S S S S H.            
---------------------------------------------|-----------------------|
--10-10-10-10---8---10--10-10-10-15-15-15-15-|-----------------------|
---9--9--9--9---7----9---9--9--9-14-14-14-14-|-----------------------|
---7--7--7--7---5----7---7--7--7-12-12-12-12-|-----------------------|
---------------------------------------------|--x-4-x-4--------------|
---------------------------------------------|--x-2-x-2--------------|


  S S S S H.              S S S S H.              S S S S H.            
-----------------------|-----------------------|-----------------------|
-----------------------|-----------------------|-----------------------|
-----------------------|-----------------------|-----------------------|
-----------------------|-----------------------|-----------------------|
--x-4-x-4--------------|--x-4-x-4--------------|--x-4-x-4--------------|
--x-2-x-2--------------|--x-2-x-2--------------|--x-2-x-2--------------|


  S S S S H.              S S S S H.              S S S S H.            
-----------------------|-----------------------|-----------------------|
-----------------------|-----------------------|-----------------------|
-----------------------|-----------------------|-----------------------|
-----------------------|-----------------------|-----------------------|
--x-4-x-4--------------|--x-4-x-4--------------|--x-4-x-4--------------|
--x-2-x-2--------------|--x-2-x-2--------------|--x-2-x-2--------------|


  S S S S Q    S S S Q    S     S  S  S  S S S S E  S S S S S S S  
----------------------------|-------------------------------------|
----------------------------|--10-10-10-10---8---7--7-7-7-7-7-7-7-|
----------------------------|---9--9--9--9---7---6--6-6-6-6-6-6-6-|
----------------------------|---7--7--7--7---5---4--4-4-4-4-4-4-4-|
--x-4-x-4------4---4--------|-------------------------------------|
--x-2-x-2------2---2--------|-------------------------------------|


   S  S  S  S S S S E  S S S S S S S     S  S  S  S S S S E  S S S S S S S  
-------------------------------------|-------------------------------------|
--10-10-10-10---8---7--7-7-7-7-7-7-7-|--10-10-10-10---8---7--7-7-7-7-7-7-7-|
---9--9--9--9---7---6--6-6-6-6-6-6-6-|---9--9--9--9---7---6--6-6-6-6-6-6-6-|
---7--7--7--7---5---4--4-4-4-4-4-4-4-|---7--7--7--7---5---4--4-4-4-4-4-4-4-|
-------------------------------------|-------------------------------------|
-------------------------------------|-------------------------------------|


   S  S  S  S S S S  E   S  S  S  S  S  S  S    S S S S E  S S S S S E  S E   
---------------------------------------------|-------------------------------|
--10-10-10-10---8---10--10-10-10-15-15-15-15-|-------------------------------|
---9--9--9--9---7----9---9--9--9-14-14-14-14-|-------------------------------|
---7--7--7--7---5----7---7--7--7-12-12-12-12-|-------------------------------|
---------------------------------------------|--x-4-x-4----x-4-x-4---7--7-5--|
---------------------------------------------|--x-2-x-2----x-2-x-2---5--5-3--|


  S S S S E  S S S S S E  S E     S S S S E  S S S S S E  S E   
-------------------------------|-------------------------------|
-------------------------------|-------------------------------|
-------------------------------|-------------------------------|
-------------------------------|-------------------------------|
--x-4-x-4----x-4-x-4---7--7-5--|--x-4-x-4----x-4-x-4---7--7-5--|
--x-2-x-2----x-2-x-2---5--5-3--|--x-2-x-2----x-2-x-2---5--5-3--|


  S S S S E  S S S S E  E  E     S S S S S S S S S S S E.  S S  
------------------------------|--------------------------------|
------------------------------|--------------------------------|
------------------------------|--------------------------------|
------------------------------|----------------------------x-x-|
--x-4-x-4----x-4-x-4----7--5--|--5-5---5-5---7-7---7-7-----x-x-|
--x-2-x-2----x-2-x-2----5--3--|--3-3---3-3---5-5---5-5-----x-x-|


  S S S S S S S S S S S S S S S S    S S S S S S S S S S S E.  S S  
----------------------------------|--------------------------------|
----------------------------------|--------------------------------|
----------------------------------|--------------------------------|
------------------------------x-x-|----------------------------x-x-|
--2-2---2-2---4-4---4-4-------x-x-|--5-5---5-5---7-7---7-7-----x-x-|
--0-0---0-0---2-2---2-2-------x-x-|--3-3---3-3---5-5---5-5-----x-x-|


  S S S S S S S S S S S Q    S    S S S S S S S S  S  S  S  S  S  S  S  S  
-------------------------------|------------------------------------------|
-------------------------------|--8-8-8-8-8-8-8-8-10-10-10-10-10-10-10-10-|
-------------------------------|--7-7-7-7-7-7-7-7--9--9--9--9--9--9--9--9-|
-------------------------------|--5-5-5-5-5-5-5-5--7--7--7--7--7--7--7--7-|
--2-2---2-2---4-4---4-4--------|------------------------------------------|
--0-0---0-0---2-2---2-2--------|------------------------------------------|


   S  S  S  S  S  S  S  S  S  S  S  S  S  S  S  S  
--------------------------------------------------|
--12-12-12-12-12-12-12-12-12-12-12-12-12-12-12-12-|
--11-11-11-11-11-11-11-11-11-11-11-11-11-11-11-11-|
---9--9--9--9--9--9--9--9--9--9--9--9--9--9--9--9-|
--------------------------------------------------|
--------------------------------------------------|


  S S S S S S S S  S  S  S  S  S  S  S  S  
------------------------------------------|
--8-8-8-8-8-8-8-8-10-10-10-10-10-10-10-10-|
--7-7-7-7-7-7-7-7--9--9--9--9--9--9--9--9-|
--5-5-5-5-5-5-5-5--7--7--7--7--7--7--7--7-|
------------------------------------------|
------------------------------------------|


  S S S S S S S S  S  S  S  S  S  S  S  S  
------------------------------------------|
--8-8-8-8-8-8-8-8-10-10-10-10-10-10-10-10-|
--7-7-7-7-7-7-7-7--9--9--9--9--9--9--9--9-|
--5-5-5-5-5-5-5-5--7--7--7--7--7--7--7--7-|
------------------------------------------|
------------------------------------------|


  S S S S S S S S  S  S  S  S  S  S  S  S  
------------------------------------------|
--8-8-8-8-8-8-8-8-10-10-10-10-10-10-10-10-|
--7-7-7-7-7-7-7-7--9--9--9--9--9--9--9--9-|
--5-5-5-5-5-5-5-5--7--7--7--7--7--7--7--7-|
------------------------------------------|
------------------------------------------|


   S  S  S  S  S  S  S  S  S  S  S  S  S  S  S  S  
--------------------------------------------------|
--12-12-12-12-12-12-12-12-12-12-12-12-12-12-12-12-|
--11-11-11-11-11-11-11-11-11-11-11-11-11-11-11-11-|
---9--9--9--9--9--9--9--9--9--9--9--9--9--9--9--9-|
--------------------------------------------------|
--------------------------------------------------|


  S S S S S S S S  S  S  S  S  S  S  S  S  
------------------------------------------|
--8-8-8-8-8-8-8-8-10-10-10-10-10-10-10-10-|
--7-7-7-7-7-7-7-7--9--9--9--9--9--9--9--9-|
--5-5-5-5-5-5-5-5--7--7--7--7--7--7--7--7-|
------------------------------------------|
------------------------------------------|


  S S S S S S S S  S  S  S  S  S  S  S  S      Q    H         Q     
------------------------------------------|------------------------|
--8-8-8-8-8-8-8-8-10-10-10-10-10-10-10-10-|------------------------|
--7-7-7-7-7-7-7-7--9--9--9--9--9--9--9--9-|--/14----L--------12----|
--5-5-5-5-5-5-5-5--7--7--7--7--7--7--7--7-|------------------------|
------------------------------------------|------------------------|
------------------------------------------|------------------------|


   Q    H         Q       W                   Q    H         Q     
-----------------------|-------------------|----------------------|
-----------------------|-------------------|----------------------|
--11----L--------\6----|--7----------------|----------------/6----|
-----------------------|-------------------|--5----L--------------|
-----------------------|-------------------|----------------------|
-----------------------|-------------------|----------------------|


  W                   Q    H         Q       W                 
-------------------|----------------------|-------------------|
-------------------|----------------------|-------------------|
--7----------------|----------------/9----|--7----------------|
-------------------|--5----L--------------|-------------------|
-------------------|----------------------|-------------------|
-------------------|----------------------|-------------------|


  Q    H         E   E     W                   W                 
------------------------|-------------------|-------------------|
------------------------|-------------------|-------------------|
-----------------9p--6--|--7----------------|-------------------|
--5----L----------------|-------------------|-------------------|
------------------------|-------------------|-------------------|
------------------------|-------------------|-------------------|


  W                   W                    S  S  S  S S S S E  S S S S S S S  
-------------------|-------------------|-------------------------------------|
-------------------|-------------------|--10-10-10-10---8---7--7-7-7-7-7-7-7-|
-------------------|-------------------|---9--9--9--9---7---6--6-6-6-6-6-6-6-|
-------------------|-------------------|---7--7--7--7---5---4--4-4-4-4-4-4-4-|
-------------------|-------------------|-------------------------------------|
-------------------|-------------------|-------------------------------------|


   S  S  S  S S S S E  S S S S S S S     S  S  S  S S S S E  S S S S S S S  
-------------------------------------|-------------------------------------|
--10-10-10-10---8---7--7-7-7-7-7-7-7-|--10-10-10-10---8---7--7-7-7-7-7-7-7-|
---9--9--9--9---7---6--6-6-6-6-6-6-6-|---9--9--9--9---7---6--6-6-6-6-6-6-6-|
---7--7--7--7---5---4--4-4-4-4-4-4-4-|---7--7--7--7---5---4--4-4-4-4-4-4-4-|
-------------------------------------|-------------------------------------|
-------------------------------------|-------------------------------------|


   S  S  S  S S S S  E   S  S  S  S  S  S  S  
---------------------------------------------|
--10-10-10-10---8---10--10-10-10-15-15-15-15-|
---9--9--9--9---7----9---9--9--9-14-14-14-14-|
---7--7--7--7---5----7---7--7--7-12-12-12-12-|
---------------------------------------------|
---------------------------------------------|


   S  S  S  S S S S E  S S S S S S S     S  S  S  S S S S E  S S S S S S S  
-------------------------------------|-------------------------------------|
--10-10-10-10---8---7--7-7-7-7-7-7-7-|--10-10-10-10---8---7--7-7-7-7-7-7-7-|
---9--9--9--9---7---6--6-6-6-6-6-6-6-|---9--9--9--9---7---6--6-6-6-6-6-6-6-|
---7--7--7--7---5---4--4-4-4-4-4-4-4-|---7--7--7--7---5---4--4-4-4-4-4-4-4-|
-------------------------------------|-------------------------------------|
-------------------------------------|-------------------------------------|


   S  S  S  S S S S E  S S S S S S S  
-------------------------------------|
--10-10-10-10---8---7--7-7-7-7-7-7-7-|
---9--9--9--9---7---6--6-6-6-6-6-6-6-|
---7--7--7--7---5---4--4-4-4-4-4-4-4-|
-------------------------------------|
-------------------------------------|


   S  S  S  S S S S  E   S  S  S  S  S  S  S    S S S S S S S S S S S Q    S  
---------------------------------------------|-------------------------------|
--10-10-10-10---8---10--10-10-10-15-15-15-15-|-------------------------------|
---9--9--9--9---7----9---9--9--9-14-14-14-14-|-------------------------------|
---7--7--7--7---5----7---7--7--7-12-12-12-12-|-------------------------------|
---------------------------------------------|--5-5---5-5---7-7---7-7--------|
---------------------------------------------|--3-3---3-3---5-5---5-5--------|


  S S S S S S S S S S S Q    S    S S S S S S S S S S S Q    S  
-------------------------------|-------------------------------|
-------------------------------|-------------------------------|
-------------------------------|-------------------------------|
-------------------------------|-------------------------------|
--2-2---2-2---4-4---4-4--------|--5-5---5-5---7-7---7-7--------|
--0-0---0-0---2-2---2-2--------|--3-3---3-3---5-5---5-5--------|


  S S S S S S S S S S S S S S S S    S S S S S S S S S S S E.  S S  
----------------------------------|--------------------------------|
----------------------------------|--------------------------------|
----------------------------------|--------------------------------|
----------------------------x-x-x-|----------------------------x-x-|
--2-2---2-2---4-4---4-4-----x-x-x-|--5-5---5-5---7-7---7-7-----x-x-|
--0-0---0-0---2-2---2-2-----x-x-x-|--3-3---3-3---5-5---5-5-----x-x-|


  S S S S S S S S S S S S S S S S    S S S S S S S S S S S E.  S S  
----------------------------------|--------------------------------|
----------------------------------|--------------------------------|
----------------------------------|--------------------------------|
------------------------------x-x-|----------------------------x-x-|
--2-2---2-2---4-4---4-4-------x-x-|--5-5---5-5---7-7---7-7-----x-x-|
--0-0---0-0---2-2---2-2-------x-x-|--3-3---3-3---5-5---5-5-----x-x-|


  S S S S S S S S H           Q.     S S S E.  Q       H        E  S E  S S S  
---------------------------|------------------------|--2--------2----2--------|
---------------------------|------------------------|--3--------3--3----3-----|
---------------------------|------------------------|--4--------2---------2---|
---------------------------|--5------7---7----------|-----------------------4-|
--2-2---2-2---4-4----------|--5------7---7----------|-------------------------|
--0-0---0-0---2-2----------|--3------5---5----------|-------------------------|


  E.  E  E.  E.  E  E.     E  S S S S S  S  S  S  S  S  S  S  S  S     S S E   
--3----------5----------|------------------------------------------|----------|
--3----------5----------|------------------------------------------|----------|
--4---4------6---6------|------------------------------------------|----------|
--5------5---7------7---|--5--5-7-7-9-9-11-11-12-12-11-11-17-17-19-|--19------|
------------------------|------------------------------------------|----------|
------------------------|------------------------------------------|----------|


  S S S S S S S S  S  S  S  S  S  S  S  S  
------------------------------------------|
--8-8-8-8-8-8-8-8-10-10-10-10-10-10-10-10-|
--7-7-7-7-7-7-7-7--9--9--9--9--9--9--9--9-|
--5-5-5-5-5-5-5-5--7--7--7--7--7--7--7--7-|
------------------------------------------|
------------------------------------------|


   S  S  S  S  S  S  S  S  S  S  S  S  S  S  S  S  
--------------------------------------------------|
--12-12-12-12-12-12-12-12-12-12-12-12-12-12-12-12-|
--11-11-11-11-11-11-11-11-11-11-11-11-11-11-11-11-|
---9--9--9--9--9--9--9--9--9--9--9--9--9--9--9--9-|
--------------------------------------------------|
--------------------------------------------------|


  S S S S S S S S  S  S  S  S  S  S  S  S  
------------------------------------------|
--8-8-8-8-8-8-8-8-10-10-10-10-10-10-10-10-|
--7-7-7-7-7-7-7-7--9--9--9--9--9--9--9--9-|
--5-5-5-5-5-5-5-5--7--7--7--7--7--7--7--7-|
------------------------------------------|
------------------------------------------|


  S S S S S S S S  S  S  S  S  S  S  S  S  
------------------------------------------|
--8-8-8-8-8-8-8-8-10-10-10-10-10-10-10-10-|
--7-7-7-7-7-7-7-7--9--9--9--9--9--9--9--9-|
--5-5-5-5-5-5-5-5--7--7--7--7--7--7--7--7-|
------------------------------------------|
------------------------------------------|


  S S S S S S S S  S  S  S  S  S  S  S  S  
------------------------------------------|
--8-8-8-8-8-8-8-8-10-10-10-10-10-10-10-10-|
--7-7-7-7-7-7-7-7--9--9--9--9--9--9--9--9-|
--5-5-5-5-5-5-5-5--7--7--7--7--7--7--7--7-|
------------------------------------------|
------------------------------------------|


   S  S  S  S  S  S  S  S  S  S  S  S  S  S  S  S  
--------------------------------------------------|
--12-12-12-12-12-12-12-12-12-12-12-12-12-12-12-12-|
--11-11-11-11-11-11-11-11-11-11-11-11-11-11-11-11-|
---9--9--9--9--9--9--9--9--9--9--9--9--9--9--9--9-|
--------------------------------------------------|
--------------------------------------------------|


  S S S S S S S S  S  S  S  S  S  S  S  S  
------------------------------------------|
--8-8-8-8-8-8-8-8-10-10-10-10-10-10-10-10-|
--7-7-7-7-7-7-7-7--9--9--9--9--9--9--9--9-|
--5-5-5-5-5-5-5-5--7--7--7--7--7--7--7--7-|
------------------------------------------|
------------------------------------------|


  S S S S S S S S  S  S  S  S  S  S  S  S    E  E  E  E  E  E  E  E   
------------------------------------------|--------2-----5-----2-----|
--8-8-8-8-8-8-8-8-10-10-10-10-10-10-10-10-|-----3-----3-----3-----3--|
--7-7-7-7-7-7-7-7--9--9--9--9--9--9--9--9-|--4-----------------------|
--5-5-5-5-5-5-5-5--7--7--7--7--7--7--7--7-|--------------------------|
------------------------------------------|--------------------------|
------------------------------------------|--------------------------|


  W                   E  E  E  E  E  E  E  E     W                   H         
-------------------|--------2-----5-----2-----|-------------------|-----------|
-------------------|-----3-----3-----3-----3--|-------------------|-----------|
-------------------|--4-----------------------|-------------------|-----------|
-------------------|--------------------------|-------------------|-----------|
-------------------|--------------------------|-------------------|-----------|
-------------------|--------------------------|-------------------|-----------|


   S  S  S  S S S S E  S S S S S S S     S  S  S  S S S S E  S S S S S S S  
-------------------------------------|-------------------------------------|
--10-10-10-10---8---7--7-7-7-7-7-7-7-|--10-10-10-10---8---7--7-7-7-7-7-7-7-|
---9--9--9--9---7---6--6-6-6-6-6-6-6-|---9--9--9--9---7---6--6-6-6-6-6-6-6-|
---7--7--7--7---5---4--4-4-4-4-4-4-4-|---7--7--7--7---5---4--4-4-4-4-4-4-4-|
-------------------------------------|-------------------------------------|
-------------------------------------|-------------------------------------|


   S  S  S  S S S S E  S S S S S S S  
-------------------------------------|
--10-10-10-10---8---7--7-7-7-7-7-7-7-|
---9--9--9--9---7---6--6-6-6-6-6-6-6-|
---7--7--7--7---5---4--4-4-4-4-4-4-4-|
-------------------------------------|
-------------------------------------|


   S  S  S  S S S S  E   S  S  S  S  S  S  S  
---------------------------------------------|
--10-10-10-10---8---10--10-10-10-15-15-15-15-|
---9--9--9--9---7----9---9--9--9-14-14-14-14-|
---7--7--7--7---5----7---7--7--7-12-12-12-12-|
---------------------------------------------|
---------------------------------------------|


   S  S  S  S S S S E  S S S S S S S     S  S  S  S S S S E  S S S S S S S  
-------------------------------------|-------------------------------------|
--10-10-10-10---8---7--7-7-7-7-7-7-7-|--10-10-10-10---8---7--7-7-7-7-7-7-7-|
---9--9--9--9---7---6--6-6-6-6-6-6-6-|---9--9--9--9---7---6--6-6-6-6-6-6-6-|
---7--7--7--7---5---4--4-4-4-4-4-4-4-|---7--7--7--7---5---4--4-4-4-4-4-4-4-|
-------------------------------------|-------------------------------------|
-------------------------------------|-------------------------------------|


   S  S  S  S S S S E  S S S S S S S     S  S  S  S S S S S S S S S Q      
-------------------------------------|-----------------------------------||
--10-10-10-10---8---7--7-7-7-7-7-7-7-|--10-10-10-10---8---7---5----------||
---9--9--9--9---7---6--6-6-6-6-6-6-6-|---9--9--9--9---7---6---4----------||
---7--7--7--7---5---4--4-4-4-4-4-4-4-|---7--7--7--7---5---4---2----------||
-------------------------------------|-----------------------------------||
-------------------------------------|-----------------------------------||




Duration Legend
---------------
W - whole
H - half
Q - quarter
E - 8th
S - 16th
T - 32nd
X - 64th
. - note dotted
|-n-|  - n-tuplets


Tablature Legend
----------------
L - tied note
x - dead note
g - grace note
(n) - ghost note
> - accentuded note
NH - natural harmonic
AH - artificial harmonic
TH - tapped harmonic
SH - semi harmonic
PH - pitch harmonic
h - hammer on
p - pull off
b - bend
br - bendRelease
pb - preBend
pbr - preBendRelease
brb - bendReleaseBend
\n/ - tremolo bar dip
\n - tremolo bar dive
-/n - tremolo bar Release up
/n\ - tremolo bar inverted dip
/n - tremolo bar return
-\n - tremolo bar Release down
S - shift slide
s - legato slide
/ -  slide into from below or out of upwards
\ -  slide into from above or out of downwards
~ - vibrato
W - wide vibrato
tr - trill
TP - tremolo picking
T - tapping
S - slap
P - pop
< - fade in
^ - brush up
v - brush down
Добавлено: 05.03.2012
Вам также может быть интересно:
Другие материалы по этой песне:
  • Аккорды и текст

Страница создана 05.03.2012
http://primanota.ru/kagerou/koi-uta-g-2-chords.htm
Привет, Гость.
Предлагаем пройти революционный курс по гитаре.
Подарок от PrimaNota.Ru, забирай!