PrimaNota.ru - самый крупный в мире бесплатный архив песенных текстов, аккордов, табулатур и нот


Kagerou - Koi Uta - таба, видео

Регистрация Запомнить меня
Войти через:  Facebook Google Twitter Vk Yandex Mail.ru

Kagerou - Koi Uta - таба, видео

Печатать
Просмотров: 202
Уроки эстрадного вокала в Санкт-Петербурге
                               Koi Uta                         


                                                                  Kagerou
Guitar 1 (Left)



     W                   W                   W                 
E||-------------------|-------------------|-------------------|
B||-------------------|-------------------|-------------------|
G||-------------------|-------------------|-------------------|
D||-------------------|-------------------|-------------------|
A||-------------------|-------------------|-------------------|
E||-------------------|-------------------|-------------------|


  W                   S S S S S S S E  S S   E  S S  S  
-------------------|-----------------------------------|
-------------------|-----------------------------------|
-------------------|--9-9-9-9---7---6--6-6/--9--9-9-\7-|
-------------------|--7-7-7-7---5---4--4-4--/7--7-7-\5-|
-------------------|-----------------------------------|
-------------------|-----------------------------------|


  S S S S S S S E  S S   E  S S  S    S S S S S S S E  S S   E  S S  S  
-----------------------------------|-----------------------------------|
-----------------------------------|-----------------------------------|
--9-9-9-9---7---6--6-6/--9--9-9-\7-|--9-9-9-9---7---6--6-6/--9--9-9-\7-|
--7-7-7-7---5---4--4-4--/7--7-7-\5-|--7-7-7-7---5---4--4-4--/7--7-7-\5-|
-----------------------------------|-----------------------------------|
-----------------------------------|-----------------------------------|


  S S S S S S S E  S S  S  S  S  S  S    S S S S S S S E  S S   E  S S  S  
--------------------------------------|-----------------------------------|
--------------------------------------|-----------------------------------|
--9-9-9-9---7---9--9-9-14-14-14-14-14-|--9-9-9-9---7---6--6-6/--9--9-9-\7-|
--7-7-7-7---5---7--7-7-12-12-12-12-12-|--7-7-7-7---5---4--4-4--/7--7-7-\5-|
--------------------------------------|-----------------------------------|
--------------------------------------|-----------------------------------|


  S S S S S S S E  S S   E  S S  S    S S S S S S S E  S S   E  S S  S  
-----------------------------------|-----------------------------------|
-----------------------------------|-----------------------------------|
--9-9-9-9---7---6--6-6/--9--9-9-\7-|--9-9-9-9---7---6--6-6/--9--9-9-\7-|
--7-7-7-7---5---4--4-4--/7--7-7-\5-|--7-7-7-7---5---4--4-4--/7--7-7-\5-|
-----------------------------------|-----------------------------------|
-----------------------------------|-----------------------------------|


  S S S S S S S E  S S  S  S  S  S  S    S S S S Q    H         
--------------------------------------|------------------------|
--------------------------------------|------------------------|
--9-9-9-9---7---9--9-9-14-14-14-14-14-|------------------------|
--7-7-7-7---5---7--7-7-12-12-12-12-12-|------------------------|
--------------------------------------|--4-4-x-4---------------|
--------------------------------------|--2-2-x-2---------------|


  S S S S Q    H           S S S S Q    H           S S S S Q    H         
------------------------|------------------------|------------------------|
------------------------|------------------------|------------------------|
------------------------|------------------------|------------------------|
------------------------|------------------------|------------------------|
--4-4-x-4---------------|--4-4-x-4---------------|--4-4-x-4---------------|
--2-2-x-2---------------|--2-2-x-2---------------|--2-2-x-2---------------|


  S S S S Q    H           S S S S Q    H           S S S S Q    H         
------------------------|------------------------|------------------------|
------------------------|------------------------|------------------------|
------------------------|------------------------|------------------------|
------------------------|------------------------|------------------------|
--4-4-x-4---------------|--4-4-x-4---------------|--4-4-x-4---------------|
--2-2-x-2---------------|--2-2-x-2---------------|--2-2-x-2---------------|


  S S S S Q    S S S Q    S    S S S S S S S E  S S   E  S S  S  
----------------------------|-----------------------------------|
----------------------------|-----------------------------------|
----------------------------|--9-9-9-9---7---6--6-6/--9--9-9-\7-|
----------------------------|--7-7-7-7---5---4--4-4--/7--7-7-\5-|
--4-4-x-4------4---4--------|-----------------------------------|
--2-2-x-2------2---2--------|-----------------------------------|


  S S S S S S S E  S S   E  S S  S    S S S S S S S E  S S   E  S S  S  
-----------------------------------|-----------------------------------|
-----------------------------------|-----------------------------------|
--9-9-9-9---7---6--6-6/--9--9-9-\7-|--9-9-9-9---7---6--6-6/--9--9-9-\7-|
--7-7-7-7---5---4--4-4--/7--7-7-\5-|--7-7-7-7---5---4--4-4--/7--7-7-\5-|
-----------------------------------|-----------------------------------|
-----------------------------------|-----------------------------------|


  S S S S S S S E  S S  S  S  S  S  S    S S S S E  S S S S S E  S E   
--------------------------------------|-------------------------------|
--------------------------------------|-------------------------------|
--9-9-9-9---7---9--9-9-14-14-14-14-14-|-------------------------------|
--7-7-7-7---5---7--7-7-12-12-12-12-12-|-------------------------------|
--------------------------------------|--4-4-x-4----4-4-x-4---7--7-5--|
--------------------------------------|--2-2-x-2----2-2-x-2---5--5-3--|


  S S S S E  S S S S S E  S E     S S S S E  S S S S S E  S E   
-------------------------------|-------------------------------|
-------------------------------|-------------------------------|
-------------------------------|-------------------------------|
-------------------------------|-------------------------------|
--4-4-x-4----4-4-x-4---7--7-5--|--4-4-x-4----4-4-x-4---7--7-5--|
--2-2-x-2----2-2-x-2---5--5-3--|--2-2-x-2----2-2-x-2---5--5-3--|


  S S S S E  S S S S E  E  E     S S S S S S S S S S S S S S E   
------------------------------|---------------------------------|
------------------------------|---------------------------------|
------------------------------|---------------------------------|
------------------------------|--------------------------x-x----|
--4-4-x-4----4-4-x-4----7--5--|--5-5---5-5---7-7---7-7---x-x----|
--2-2-x-2----2-2-x-2----5--3--|--3-3---3-3---5-5---5-5---x-x----|


  S S S S S S S S S S S S T T S E     S S S S S S S S S S S S S S E   
-----------------------------------|---------------------------------|
-----------------------------------|---------------------------------|
-----------------------------------|---------------------------------|
--------------------------x-x-x----|--------------------------x-x----|
--2-2---2-2---4-4---4-4---x-x-x----|--5-5---5-5---7-7---7-7---x-x----|
--0-0---0-0---2-2---2-2---x-x-x----|--3-3---3-3---5-5---5-5---x-x----|


  S S S S S S S S S S S Q    S    S S S S S S S S S S S S S S S S  
-------------------------------|----------------------------------|
-------------------------------|----------------------------------|
-------------------------------|----------------------------------|
-------------------------------|--5-5-5-5-5-5-5-5-7-7-7-7-7-7-7-7-|
--2-2---2-2---4-4---4-4--------|--5-5-5-5-5-5-5-5-7-7-7-7-7-7-7-7-|
--0-0---0-0---2-2---2-2--------|--3-3-3-3-3-3-3-3-5-5-5-5-5-5-5-5-|


  S S S S S S S S  S  S  S  S  S  S  S  S    S S S S S S S S S S S S S S S S  
------------------------------------------|----------------------------------|
------------------------------------------|----------------------------------|
------------------------------------------|----------------------------------|
--9-9-9-9-9-9-9-9-12-12-12-12-12-12-12-12-|--2-2-2-2-2-2-2-2-4-4-4-4-4-4-4-4-|
--9-9-9-9-9-9-9-9-12-12-12-12-12-12-12-12-|--2-2-2-2-2-2-2-2-4-4-4-4-4-4-4-4-|
--7-7-7-7-7-7-7-7-10-10-10-10-10-10-10-10-|--0-0-0-0-0-0-0-0-2-2-2-2-2-2-2-2-|


  S S S S S S S S S S S S S S S S    S S S S S S S S S S S S S S S S  
----------------------------------|----------------------------------|
----------------------------------|----------------------------------|
----------------------------------|----------------------------------|
--5-5-5-5-5-5-5-5-7-7-7-7-7-7-7-7-|--5-5-5-5-5-5-5-5-7-7-7-7-7-7-7-7-|
--5-5-5-5-5-5-5-5-7-7-7-7-7-7-7-7-|--5-5-5-5-5-5-5-5-7-7-7-7-7-7-7-7-|
--3-3-3-3-3-3-3-3-5-5-5-5-5-5-5-5-|--3-3-3-3-3-3-3-3-5-5-5-5-5-5-5-5-|


  S S S S S S S S  S  S  S  S  S  S  S  S    S S S S S S S S S S S S S S S S  
------------------------------------------|----------------------------------|
------------------------------------------|----------------------------------|
------------------------------------------|----------------------------------|
--9-9-9-9-9-9-9-9-12-12-12-12-12-12-12-12-|--2-2-2-2-2-2-2-2-4-4-4-4-4-4-4-4-|
--9-9-9-9-9-9-9-9-12-12-12-12-12-12-12-12-|--2-2-2-2-2-2-2-2-4-4-4-4-4-4-4-4-|
--7-7-7-7-7-7-7-7-10-10-10-10-10-10-10-10-|--0-0-0-0-0-0-0-0-2-2-2-2-2-2-2-2-|


  S S S S S S S S S S S S S S S S     W                   H.            Q     
----------------------------------|--------------------|---------------------|
----------------------------------|--12----------------|--L------------14----|
----------------------------------|--11----------------|--L------------------|
--5-5-5-5-5-5-5-5-7-7-7-7-7-7-7-7-|---9----------------|--L------------------|
--5-5-5-5-5-5-5-5-7-7-7-7-7-7-7-7-|--------------------|---------------------|
--3-3-3-3-3-3-3-3-5-5-5-5-5-5-5-5-|--------------------|---------------------|


   W                   H.            Q        W                 
--------------------|---------------------|--------------------|
--15----------------|--L------------14----|--15----------------|
--------------------|---------------------|--------------------|
--------------------|---------------------|--------------------|
--------------------|---------------------|--------------------|
--------------------|---------------------|--------------------|


  H.            Q        W                   W                 
---------------------|--------------------|-------------------|
--L------------14----|--15----------------|--L----------------|
---------------------|--------------------|-------------------|
---------------------|--------------------|-------------------|
---------------------|--------------------|-------------------|
---------------------|--------------------|-------------------|


  W                   W                   W                   W                 
-------------------|-------------------|-------------------|-------------------|
-------------------|-------------------|-------------------|-------------------|
-------------------|-------------------|-------------------|-------------------|
-------------------|-------------------|-------------------|-------------------|
-------------------|-------------------|-------------------|-------------------|
-------------------|-------------------|-------------------|-------------------|


  S S S S S S S E  S S   E  S S  S    S S S S S S S E  S S   E  S S  S  
-----------------------------------|-----------------------------------|
-----------------------------------|-----------------------------------|
--9-9-9-9---7---6--6-6/--9--9-9-\7-|--9-9-9-9---7---6--6-6/--9--9-9-\7-|
--7-7-7-7---5---4--4-4--/7--7-7-\5-|--7-7-7-7---5---4--4-4--/7--7-7-\5-|
-----------------------------------|-----------------------------------|
-----------------------------------|-----------------------------------|


  S S S S S S S E  S S   E  S S  S    S S S S S S S E  S S  S  S  S  S  S  
-----------------------------------|--------------------------------------|
-----------------------------------|--------------------------------------|
--9-9-9-9---7---6--6-6/--9--9-9-\7-|--9-9-9-9---7---9--9-9-14-14-14-14-14-|
--7-7-7-7---5---4--4-4--/7--7-7-\5-|--7-7-7-7---5---7--7-7-12-12-12-12-12-|
-----------------------------------|--------------------------------------|
-----------------------------------|--------------------------------------|


  S S S S S S S E  S S   E  S S  S    S S S S S S S E  S S   E  S S  S  
-----------------------------------|-----------------------------------|
-----------------------------------|-----------------------------------|
--9-9-9-9---7---6--6-6/--9--9-9-\7-|--9-9-9-9---7---6--6-6/--9--9-9-\7-|
--7-7-7-7---5---4--4-4--/7--7-7-\5-|--7-7-7-7---5---4--4-4--/7--7-7-\5-|
-----------------------------------|-----------------------------------|
-----------------------------------|-----------------------------------|


  S S S S S S S E  S S   E  S S  S    S S S S S S S E  S S  S  S  S  S  S  
-----------------------------------|--------------------------------------|
-----------------------------------|--------------------------------------|
--9-9-9-9---7---6--6-6/--9--9-9-\7-|--9-9-9-9---7---9--9-9-14-14-14-14-14-|
--7-7-7-7---5---4--4-4--/7--7-7-\5-|--7-7-7-7---5---7--7-7-12-12-12-12-12-|
-----------------------------------|--------------------------------------|
-----------------------------------|--------------------------------------|


  S S S S S S S S S S S Q    S    S S S S S S S S S S S Q    S  
-------------------------------|-------------------------------|
-------------------------------|-------------------------------|
-------------------------------|-------------------------------|
-------------------------------|-------------------------------|
--5-5---5-5---7-7---7-7--------|--2-2---2-2---4-4---4-4--------|
--3-3---3-3---5-5---5-5--------|--0-0---0-0---2-2---2-2--------|


  S S S S S S S S S S S Q    S    S S S S S S S S S S S T T S S S S  
-------------------------------|------------------------------------|
-------------------------------|------------------------------------|
-------------------------------|------------------------------------|
-------------------------------|--------------------------x-x-------|
--5-5---5-5---7-7---7-7--------|--2-2---2-2---4-4---4-4---x-x-------|
--3-3---3-3---5-5---5-5--------|--0-0---0-0---2-2---2-2---x-x-------|


  S S S S S S S S S S S S S S E     S S S S S S S S S S S S T T S E   
---------------------------------|-----------------------------------|
---------------------------------|-----------------------------------|
---------------------------------|-----------------------------------|
--------------------------x-x----|--------------------------x-x-x----|
--5-5---5-5---7-7---7-7---x-x----|--2-2---2-2---4-4---4-4---x-x-x----|
--3-3---3-3---5-5---5-5---x-x----|--0-0---0-0---2-2---2-2---x-x-x----|


  S S S S S S S S S S S S S S E     S S S S S S S S H         
---------------------------------|---------------------------|
---------------------------------|---------------------------|
---------------------------------|---------------------------|
--------------------------x-x----|---------------------------|
--5-5---5-5---7-7---7-7---x-x----|--2-2---2-2---4-4----------|
--3-3---3-3---5-5---5-5---x-x----|--0-0---0-0---2-2----------|


  Q.     S S S E.  Q       H         H           H        H         
------------------------|---------------------|--------------------|
------------------------|---------------------|--------------------|
------------------------|---------------------|--------------------|
--5------7---7----------|--9--------12--------|--2--------4--------|
--5------7---7----------|--9--------12--------|--2--------4--------|
--3------5---5----------|--7--------10--------|--0--------2--------|


  E  S S S S S S S S S S S S S S    S S E     S S S S S S S S S S S S S S S S  
---------------------------------|---------|----------------------------------|
---------------------------------|---------|----------------------------------|
---------------------------------|---------|----------------------------------|
--5--5-5-5-5-5-5-7-7-7-7-7-7-7-7-|--7------|--5-5-5-5-5-5-5-5-7-7-7-7-7-7-7-7-|
--5--5-5-5-5-5-5-7-7-7-7-7-7-7-7-|--7------|--5-5-5-5-5-5-5-5-7-7-7-7-7-7-7-7-|
--3--3-5-3-3-3-3-5-5-5-5-5-5-5-5-|--5------|--3-3-3-3-3-3-3-3-5-5-5-5-5-5-5-5-|


  S S S S S S S S  S  S  S  S  S  S  S  S    S S S S S S S S S S S S S S S S  
------------------------------------------|----------------------------------|
------------------------------------------|----------------------------------|
------------------------------------------|----------------------------------|
--9-9-9-9-9-9-9-9-12-12-12-12-12-12-12-12-|--2-2-2-2-2-2-2-2-4-4-4-4-4-4-4-4-|
--9-9-9-9-9-9-9-9-12-12-12-12-12-12-12-12-|--2-2-2-2-2-2-2-2-4-4-4-4-4-4-4-4-|
--7-7-7-7-7-7-7-7-10-10-10-10-10-10-10-10-|--0-0-0-0-0-0-0-0-2-2-2-2-2-2-2-2-|


  S S S S S S S S S S S S S S S S    S S S S S S S S S S S S S S S S  
----------------------------------|----------------------------------|
----------------------------------|----------------------------------|
----------------------------------|----------------------------------|
--5-5-5-5-5-5-5-5-7-7-7-7-7-7-7-7-|--5-5-5-5-5-5-5-5-7-7-7-7-7-7-7-7-|
--5-5-5-5-5-5-5-5-7-7-7-7-7-7-7-7-|--5-5-5-5-5-5-5-5-7-7-7-7-7-7-7-7-|
--3-3-3-3-3-3-3-3-5-5-5-5-5-5-5-5-|--3-3-3-3-3-3-3-3-5-5-5-5-5-5-5-5-|


  S S S S S S S S  S  S  S  S  S  S  S  S    S S S S S S S S S S S S S S S S  
------------------------------------------|----------------------------------|
------------------------------------------|----------------------------------|
------------------------------------------|----------------------------------|
--9-9-9-9-9-9-9-9-12-12-12-12-12-12-12-12-|--2-2-2-2-2-2-2-2-4-4-4-4-4-4-4-4-|
--9-9-9-9-9-9-9-9-12-12-12-12-12-12-12-12-|--2-2-2-2-2-2-2-2-4-4-4-4-4-4-4-4-|
--7-7-7-7-7-7-7-7-10-10-10-10-10-10-10-10-|--0-0-0-0-0-0-0-0-2-2-2-2-2-2-2-2-|


  S S S S S S S S S S S S S S S S    S S S S S S S S  S  S  S  S  S  S  S  S  
----------------------------------|------------------------------------------|
----------------------------------|--8-8-8-8-8-8-8-8-10-10-10-10-10-10-10-10-|
----------------------------------|--7-7-7-7-7-7-7-7--9--9--9--9--9--9--9--9-|
--5-5-5-5-5-5-5-5-7-7-7-7-7-7-7-7-|--5-5-5-5-5-5-5-5--7--7--7--7--7--7--7--7-|
--5-5-5-5-5-5-5-5-7-7-7-7-7-7-7-7-|------------------------------------------|
--3-3-3-3-3-3-3-3-5-5-5-5-5-5-5-5-|------------------------------------------|


   S  S  S  S  S  S  S  S  S  S  S  S  S  S  S  S  
--------------------------------------------------|
--12-12-12-12-12-12-12-12-12-12-12-12-12-12-12-12-|
--11-11-11-11-11-11-11-11-11-11-11-11-11-11-11-11-|
---9--9--9--9--9--9--9--9--9--9--9--9--9--9--9--9-|
--------------------------------------------------|
--------------------------------------------------|


  S S S S S S S S S S S S S S S S    S S S S S S S S  S  S  S  S  S  S  S  S  
----------------------------------|------------------------------------------|
--5-5-5-5-5-5-5-5-7-7-7-7-7-7-7-7-|--8-8-8-8-8-8-8-8-10-10-10-10-10-10-10-10-|
--4-4-4-4-4-4-4-4-6-6-6-6-6-6-6-6-|--7-7-7-7-7-7-7-7--9--9--9--9--9--9--9--9-|
--2-2-2-2-2-2-2-2-4-4-4-4-4-4-4-4-|--5-5-5-5-5-5-5-5--7--7--7--7--7--7--7--7-|
----------------------------------|------------------------------------------|
----------------------------------|------------------------------------------|


   S E.  Q       S S S S S S S E  S S   E  S S  S  
--------------|-----------------------------------|
--10----------|-----------------------------------|
---9----------|--9-9-9-9---7---6--6-6/--9--9-9-\7-|
---7----------|--7-7-7-7---5---4--4-4--/7--7-7-\5-|
--------------|-----------------------------------|
--------------|-----------------------------------|


  S S S S S S S E  S S   E  S S  S    S S S S S S S E  S S   E  S S  S  
-----------------------------------|-----------------------------------|
-----------------------------------|-----------------------------------|
--9-9-9-9---7---6--6-6/--9--9-9-\7-|--9-9-9-9---7---6--6-6/--9--9-9-\7-|
--7-7-7-7---5---4--4-4--/7--7-7-\5-|--7-7-7-7---5---4--4-4--/7--7-7-\5-|
-----------------------------------|-----------------------------------|
-----------------------------------|-----------------------------------|


  S S S S S S S E  S S  S  S  S  S  S    S S S S S S S E  S S   E  S S  S  
--------------------------------------|-----------------------------------|
--------------------------------------|-----------------------------------|
--9-9-9-9---7---9--9-9-14-14-14-14-14-|--9-9-9-9---7---6--6-6/--9--9-9-\7-|
--7-7-7-7---5---7--7-7-12-12-12-12-12-|--7-7-7-7---5---4--4-4--/7--7-7-\5-|
--------------------------------------|-----------------------------------|
--------------------------------------|-----------------------------------|


  S S S S S S S E  S S   E  S S  S    S S S S S S S E  S S   E  S S  S  
-----------------------------------|-----------------------------------|
-----------------------------------|-----------------------------------|
--9-9-9-9---7---6--6-6/--9--9-9-\7-|--9-9-9-9---7---6--6-6/--9--9-9-\7-|
--7-7-7-7---5---4--4-4--/7--7-7-\5-|--7-7-7-7---5---4--4-4--/7--7-7-\5-|
-----------------------------------|-----------------------------------|
-----------------------------------|-----------------------------------|


  S S S S S S S S S S S S Q      
-------------------------------||
-------------------------------||
--9-9-9-9---7---6---4----------||
--7-7-7-7---5---4---2----------||
-------------------------------||
-------------------------------||




Duration Legend
---------------
W - whole
H - half
Q - quarter
E - 8th
S - 16th
T - 32nd
X - 64th
. - note dotted
|-n-|  - n-tuplets


Tablature Legend
----------------
L - tied note
x - dead note
g - grace note
(n) - ghost note
> - accentuded note
NH - natural harmonic
AH - artificial harmonic
TH - tapped harmonic
SH - semi harmonic
PH - pitch harmonic
h - hammer on
p - pull off
b - bend
br - bendRelease
pb - preBend
pbr - preBendRelease
brb - bendReleaseBend
\n/ - tremolo bar dip
\n - tremolo bar dive
-/n - tremolo bar Release up
/n\ - tremolo bar inverted dip
/n - tremolo bar return
-\n - tremolo bar Release down
S - shift slide
s - legato slide
/ -  slide into from below or out of upwards
\ -  slide into from above or out of downwards
~ - vibrato
W - wide vibrato
tr - trill
TP - tremolo picking
T - tapping
S - slap
P - pop
< - fade in
^ - brush up
v - brush down
Добавлено: 16.07.2012
Вам также может быть интересно:
Другие материалы по этой песне:

Страница создана 02.05.2012
http://primanota.ru/kagerou/koi-uta-chords.htm
Привет, Гость.
Предлагаем пройти революционный курс по гитаре.
Подарок от PrimaNota.Ru, забирай!