PrimaNota.ru - самый крупный в мире бесплатный архив песенных текстов, аккордов, табулатур и нот


Kafka Jones - Sun Flower - таба, видео

Регистрация Запомнить меня
Войти через:  Facebook Google Twitter Vk Yandex Mail.ru

Kafka Jones - Sun Flower - таба, видео

Печатать
Просмотров: 103
Уроки эстрадного вокала в Санкт-Петербурге
Tabbed by: The Cathead


Tuning: Standart
*Capo 2nd


INTRO & VERSE:

"I wonder if I'll sleep tonight"...

|-------------------------------|
|--------3-----2-2---7---7-7-7--|
|----------0---2-2---7---7-7-7--|
|------4-------2-2---7---7-7-7--|
|--2\5--------------------------|
|------------2-----7---7--------|

PRE-CHORUS:

"I know that I'll be waiting for you"...

|-----------------------------------------------------|
|--------3-----2-----------------------3--------------|
|----------0---2-------4-------6----------------------|
|------4-------2-----5-------7-------4----------------|
|--2\5-------------5-------7-----2\5------------------|
|------------2---3-------5---------------3-3-3-5-5-5--|

CHORUS:

"Close my weary eyes"...

|--3-3-3-3-3--5-5-5-5-5-5----------------------------|
|--3-3-3-3-3--5-5-5-5-5-5--2-2-2-2-2-2--7-7-7-7-7-7--|
|--4-4-4-4-4--6-6-6-6-6-6--2-2-2-2-2-2--7-7-7-7-7-7--|
|--5-5-5-5-5--7-7-7-7-7-7--2-2-2-2-2-2--7-7-7-7-7-7--|
|--5-5-5-5-5--7-7-7-7-7-7--0-0-0-0-0-0--0-0-0-0-0-0--|
|--3-3-3-3-3--5-5-5-5-5-5--2-2-2-2-2-2--7-7-7-7-7-7--|

SOLO:

"Sun flower"...

|--------------------------|
|--2-2-2-2-2--0-0-0-0-0-0--|
|--2-2-2-2-2--2-2-2-2-2-2--|
|--2-2-2-2-2--1-1-1-1-1-1--|
|--0-0-0-0-0--2-2-2-2-2-2--|
|--2-2-2-2-2--0-0-0-0-0-0--|

ENDS:

|-------------|
|----------3--|
|--------0----|
|------4------|
|--2\5--------|
|-------------|

;)

Watch the video: youtube.com/watch?v=g6JkkmySwG0
Добавлено: 11.08.2015
Вам также может быть интересно:
Другие материалы по этой песне:
  • Аккорды и текст

Страница создана 11.08.2015
http://primanota.ru/kafka-jones/sun-flower-chords.htm
Привет, Гость.
Предлагаем пройти революционный курс по гитаре.
Подарок от PrimaNota.Ru, забирай!