PrimaNota.ru - самый крупный в мире бесплатный архив песенных текстов, аккордов, табулатур и нот


Kafabindünya - Ilk Buluşma - таба, видео

Регистрация Запомнить меня
Войти через:  Facebook Google Twitter Vk Yandex Mail.ru

Kafabindünya - Ilk Buluşma - таба, видео

Печатать
Просмотров: 52
-------------------------------------------------------------------------------
                             ilk buluşma - Kafabindünya
-------------------------------------------------------------------------------

Tabbed by: Pelin

learned by ear and im too lazy to find out the rest

| h   hammer-on
| p   pull-off

Tuning: F#DGDAE

F#|-------0------------0------------0-----------------------------------------|
D |-----------0------------0------------0-------------------------------------|
G |----------------------------------------------9p7--6h7---------------------|
D |---------------------------------------------------------------------------|
A |---------------------------------------------------------------------------|
E |--10------------7------------3------------5--------------------------------|


Добавлено: 16.06.2016
Другие материалы по этой песне:
  • Аккорды и текст

Страница создана 16.06.2016
http://primanota.ru/kafabindunya/ilk-bulusma-chords.htm
Привет, Гость.
Предлагаем пройти революционный курс по гитаре.
Подарок от PrimaNota.Ru, забирай!