PrimaNota.ru - самый крупный в мире бесплатный архив песенных текстов, аккордов, табулатур и нот


Kaddisfly - Eres Tremulent - таба, видео

Регистрация Запомнить меня
Войти через:  Facebook Google Twitter Vk Yandex Mail.ru

Kaddisfly - Eres Tremulent - таба, видео

Печатать
Просмотров: 173
Kaddisfly
Buy Our Intention...
Eres Tremulent
Tuning: Drop D on the 6th. The rest Standard


Intro:
|-------------------------|
|-------------------------|
|-----9-9---------9-9-----|
|-7-7-----6*--7-7-----6-4-|
|-------------------------|
|-------------------------|

Verse: (2:38 )
|------------------------------------0---|
|------------------------------------0---|
|--------------------------------13-2----|
|-------14-------6------------------0----|
|-12-12----4^5^4----12-12----3-----------|
|-------------------------------------4--|

Pre Chorus: (1:17)
("Wait for Others.....")
|--------------------------------|
|-----12-9-9----9----12----12----|
|-9-9--------11---11----13----11-| (2X)
|--------------------------------|
|--------------------------------|
|--------------------------------|

??????(Here strum it, pick it, do something. I'm f^ing lost here)????
|--------------------------------------------|
|-16--------------------------------------0--|
|-x---------------------------------------12-|
|-13-13----------------------------------9---|
|-14-14----------------------------------10--|
|-----15-at the end let it ring once -11-----|

Pre Verse:
|-----------------------------|
|-12-12-9----12-12-9----9-----|
|---------9----------11----11-|
|-----------------------------|
|-----------------------------|
|-----------------------------|

|--------------------------------------|
|-------12-----------------------------|
|----------13----------------16--------|
|-------------14-16-18-16-18----18-16--|
|-11-11--------------------------------|
|--------------------------------------|


Solo: (listen to this part each note is rapidly picked continuously)
|-12R--11R-11^9R-11R-12R-11R-11s14R-14s16*--|
|-------------------------------------------|
|-------------------------------------------|
|-------------------------------------------|
|-------------------------------------------|
|-------------------------------------------|
|-------------------------------------------|
Добавлено: 18.03.2012
Другие материалы по этой песне:
  • Аккорды и текст

Страница создана 18.03.2012
http://primanota.ru/kaddisfly/eres-tremulent-chords.htm
Привет, Гость.
Предлагаем пройти революционный курс по гитаре.
Подарок от PrimaNota.Ru, забирай!