PrimaNota.ru - самый крупный в мире бесплатный архив песенных текстов, аккордов, табулатур и нот


Kaddisfly - Empire - таба, видео

Регистрация Запомнить меня
Войти через:  Facebook Google Twitter Vk Yandex Mail.ru

Kaddisfly - Empire - таба, видео

Печатать
Просмотров: 252
Уроки эстрадного вокала в Санкт-Петербурге
Kaddisfly
Set Sail the Prairie
Empire
drop d half step down


try copy pasting this into notepad because when i copied it to the forum it gets all messed up


intro

e-------------------------------------------------------|
b-------------------------------------------------------|
g--------17----17-----17-----------16-----16----16------|
d------19---19----19----19-------17---17----17----17----|
a----15-------15----15----15---15-------15----15----15--|
d-0--------------------------15-------------------------|

e-------------------------------------------------|
b-------------------------------------------------|
g-------------------------12-12-12-12-14-14-14-14-|
d-15-15-15-15-14-14-14-14-10-10-10-10-10-10-10-10-|
a-12-12-12-12-12-12-12-12-10-10-10-10-10-10-10-10-|
d-12-12-12-12-12-12-12-12-10-10-10-10-10-10-10-10-|


verse - this is a swiftly tilting planet...

aaron is hitting single notes at a time here
but just mute the other strings and strum the whole guitar
to get that same rhythm going

e-x--x--x
b-x--x--x
g-10-x--x--|
d-x--12-x--|
a-x--x--12-|
d-x--x--x

do that 4 times during the verse i think and then he does...


e-x--x--------------------------------------------|
b-x--x--------------------------------------------|
g-x--x--------------------------------------------|
d-14-x--17/ slide this last note down to about 12-|
a-x--15-------------------------------------------|
d-x--x--------------------------------------------|

then just repeat those


pre-chorus - a discerning eye is better than...

e-------------------------------------------------|
b-------------------------------------------------|
g-------------------------------------------------|
d-19-19-19-19-19-19-19-19-14-14-14-14-14-14-14-14-|
a-15-15-15-15-15-15-15-15-12-12-12-12-12-12-12-12-|
d-15-15-15-15-15-15-15-15-12-12-12-12-12-12-12-12-|

e-------------------------|
b-------------------------|
g-12-12-12-12-14-14-14-14-|
d-10-10-10-10-10-10-10-10-|
a-10-10-10-10-10-10-10-10-|
d-10-10-10-10-10-10-10-10-|


chorus - we are quiet like the birds...

e-------------x-------------|
b----17-17-17-x-17-17-17-17-|
g----x--x--x--x-x--x--x--x--|
d-12h15-15-15-x-15-15-15-15-|
a-12-12-12-12-x-12-12-12-12-|
d-12-12-12-12-x-12-12-12-12-|

e-------------7-7-7-7-|
b-13-13-13-13-x-x-x-x-|
g-12-12-12-12-4-4-4-4-|
d-10-10-10-10-5-5-5-5-|
a-10-10-10-10-5-5-5-5-|
d-10-10-10-10-5-5-5-5-|

e-------------x-------------|
b----17-17-17-x-17-17-17-17-|
g----x--x--x--x-x--x--x--x--|
d-12h15-15-15-x-15-15-15-15-|
a-12-12-12-12-x-12-12-12-12-|
d-12-12-12-12-x-12-12-12-12-|

e-----------------------|
b-----------------------|
g-----------------------|
d-12-12-12-12-11-11-3-3-|
a-8--8--8--8--7--7--3-3-|
d-8--8--8--8--7--7--3-3-|
Добавлено: 05.06.2012
Другие материалы по этой песне:
  • Аккорды и текст

Страница создана 05.06.2012
http://primanota.ru/kaddisfly/empire-chords.htm
Привет, Гость.
Предлагаем пройти революционный курс по гитаре.
Подарок от PrimaNota.Ru, забирай!