PrimaNota.ru - самый крупный в мире бесплатный архив песенных текстов, аккордов, табулатур и нот


Kaapana Ledward - Whee Ha Swing - таба, видео

Регистрация Запомнить меня
Войти через:  Facebook Google Twitter Vk Yandex Mail.ru

Kaapana Ledward - Whee Ha Swing - таба, видео

Печатать
Просмотров: 98
Whee Ha Swing
by Ledward Kaapana

Tuning: DGDF#BD

h = hammer-on                     p = pull-off
roll = quick arpeggio roll      ( ) = harmonics

This version is on Led's Live Solo album on Dancing Cat.
It is a very difficult piece to play, but worth the effort.
It has similarities to Ray Kane's 'Punahele' which is in the
same tuning (and which I also wrote a tab for).
It is a fairly accurate transcription though the quicker
parts were difficult to pin down. I divided it into bars to
make it easier to follow, though some may not be correct.
 
Thanks!  (james_calton@yahoo.com)

|----------------------------0--|-------------------------0---|
|-------------------------0-----|----------------------0------|
|------1-------0h1-----1--------|-----1-----0h1-----1---------|
|---------0h2-------------0-----|--------2-------------0------|
|---0---------------0-----------|--0-------------0------------|
|---------0---------------------|--------0--------------------|

|------2-----0-----2p0--------|-----2p0-----------------------|
|---------2-------------1-----|----------1---------------0----|
|--------------------------0--|-------------0h1-----0h1-------|
|---------0-------------0-----|----------0---------------0----|
|-----------------------------|------------------0------------|
|---0-----------0-------------|--0----------------------------|

                           roll
|-----2p0--------------------0-|----------------------------0-|
|----------1-------------0-0---|--------------------------0---|
|-------------0h1-----1--------|-----1-------0h1-----0h1------|
|----------0-------------0-----|--------0h2---------------0---|
|------------------0-----------|--0---------------0-----------|
|--0---------------------------|--------0---------------------|

                          roll
|-----------------------------0--|-----4--2--0-----2p0--------|
|----------------------0----1----|----------------------1-----|
|-----1-----0h1-----1-----0------|-------------------------0--|
|--------2-------------0---------|--------0-------------0-----|
|--0-------------0---------------|----------------------------|
|--------0-----------------------|--0-----------0-------------|

|------------------------------0-|---2p0-------------------0--|
|-----------1----------------0---|--------1-------------0-----|
|------0h1-----0h1-----0h1-------|-----------0h1-----1--------|
|-0h2-------0--------------0-----|--------0-------------0-----|
|-------------------0------------|----------------0-----------|
|-0------------------------------|-0--------------------------|

|-----2p0-----0-----2p0--------|-----2p0-----0-----2p0--------|
|----------2-------------0-----|----------2-------------0-----|
|---------------------------1--|---------------------------1--|
|------------------------------|------------------------------|
|--0-------------0-------------|--0-------------0-------------|
|------------------------------|------------------------------|

|----2p0-----0---2p0--------|-------------------------------0-|
|---------2-----------1-----|-----------0h1---------------0---|
|------------------------0--|------0h1-------0h1----0h1-------|
|---------------------------|-0h2-------0---------------0-----|
|---------------------------|---------------------0-----------|
|-0------------0------------|-0-------------------------------|

|----2p0-------------------0--|----0h2p0-----0---0h2p0--------|
|---------1-------------0-----|-----------2-------------0-----|
|------------0h1-----1--------|----------------------------1--|
|---------0-------------0-----|-------------------------------|
|-----------------0-----------|-0--------------0--------------|
|-0---------------------------|-------------------------------|

|-----2p0-----0-----2p0-------|-----2p0-----0----0h2p0--------|
|----------2-------------0----|----------2--------------1-----|
|---------------------------1-|----------------------------0--|
|-----------------------------|-------------------------------|
|--0-------------0------------|-------------------------------|
|-----------------------------|--0------------0---------------|

|-------------------------------------0----|
|-------------0h1------------------0-------|
|--------0h1-------0h1-----0h1-------------|
|---0h2-------0-----------------0----------|
|-----------------------0------------------|
|---0--------------------------------------|

|------2p0----------------------0---|
|-----------1-------------0---------|
|--------------0h1-----1-----1------|
|-----------0-------------0---------|
|-------------------0---------------|
|---0-------------------------------|

|----------------------------------------------|
|----------------------------------------------|
|------1-------0h1-----0h1-------0h1-----0h1---|
|---------0h2---------------0h2----------------|
|---0---------------0-----------------0--------|
|---------0-----------------0------------------|

|---------------------------|--------------------------2--0--|
|------------------------0--|------------1-------------------|
|--------0h1-----0h1--------|-------0h1-----0-------0--------|
|---0h2---------------0-----|--0h2-------------0h2-----------|
|-------------0-------------|--------------------------------|
|---0-----------------------|--------------------------------|

|-------------------------------2--0--|
|------------1------------------------|
|-------0h1-----0h1-----0h1-----------|
|--0h2-----------------------0--------|
|--------------------0----------------|
|-------------------------------------|

|--------------------------------|
|-------------1-------------0----|
|--------0h1-----0h1-----1-------|
|---0h2-------0-------------0----|
|---------------------0----------|
|---0----------------------------|

|---------------------|-----------------|--------------------|
|---------------------|-----------------|--------------------|
|*--------------------|-----------------|--------------------|
|*---------0-----2p0--|--------0-----0--|--------0-----2p0---|
|----0--4-----4-------|--0--4-----4-----|--0--4-----4--------|
|---------------------|-----------------|--------------------|

|-----------------|--------0-------------0-----0----------|
|-----------------|---------------------------------------|
|-----------------|---5h6-----3h5-------------------------|
|--------0-----0--|----------------2h4------2-----0--0----|
|--0--4-----4-----|---------------------------------------|
|-----------------|---------------------------------------|

|-------------------------------|-----------------------------|
|-------------------------------|-----------------------------|
|-------------------------------|--------------------------1-*|
|------0-------4h5--4h5-------0-|-----------4h5----0---0-----*|
|-6h7-----4h5------------4h5----|-6h7--4h5-------0---4---0----|
|-------------------------------|-----------------------------|

|-----------0--------0--------|-----2p0-----0-----2p0---------|
|--------3-----3--------0-----|----------2-------------0------|
|-----1--------------------1--|---------------------------1---|
|-----------------------------|-------------------------------|
|--0--------------0-----------|--0-------------0--------------|
|-----------------------------|-------------------------------|

|-----2p0-----0----2p0--------|-----0----------------------0--|
|----------2------------1-----|--------1-----------------0----|
|--------------------------0--|-----------0h1-----0h1---------|
|-----------------------------|------------------------0------|
|-----------------------------|----------------0--------------|
|--0------------0-------------|--0----------------------------|

|----2p0----------------------0--|-----0-----0----(12)--------|
|---------1-------------0--------|--------2-------------(12)--|
|------------0h1-----1-----1-----|----------------------------|
|-----------------------0--------|----------------------------|
|-----------------0--------------|--0-----------0-------------|
|--0-----------------------------|----------------------------|

|---0h2p0-----0---(12)----------|---0h2p0-----0---(7)------0--|
|----------2------------(12)----|----------2----------(7)-----|
|-------------------------------|-----------------------------|
|----------------------------0--|-----------------------------|
|-0-------------0---------------|-----------------------------|
|-------------------------------|-0-------------0-------------|

|---0h2p0--------------------0-|----2p0---------------------0-|
|----------1---------------0---|---------1-------------0------|
|-------------0h1---0h1--------|------------0h1-----1-----1---|
|------------------------0-----|-----------------------0------|
|-----------------0------------|-----------------0------------|
|-0----------------------------|-0----------------------------|

|----0-----0---(12)------(12)-|---0h2p0-----0----(12)-------0-|
|----0--2-----------(12)------|----------2------------(12)----|
|-----------------------------|-------------------------------|
|-----------------------------|-------------------------------|
|--0---------0----------------|-0-------------0---------------|
|-----------------------------|-------------------------------|

|------0h2p0-----0--(7)-------|-----0---------------------0---|
|-------------2----------(7)--|--------1---------------0------|
|-----------------------------|-----------0h1-----0h1---------|
|-----------------------------|------------------------0------|
|-----------------------------|----------------0--------------|
|---0-------------------------|--0----------------------------|

|---2p0---------------------0--|---------------------------0--|
|--------1-------------0-------|---------------------0--------|
|-----------0h1-----1-----1----|--1-----0h1-----0h1-----1-----|
|----------------------0-------|-----2---------------0--------|
|----------------0-------------|-------------0----------------|
|-0----------------------------|------------------------------|

|-------------------------------------|
|------------------------------0------|
|------1-------0h1-----0h1--------1---|
|---------0h2---------------0---------|
|---0---------------0-----------------|
|-------------------------------------|

|-------------------------------------------------------0-----|
|----------------------------------------------------0--------|
|-----------1--3--1--------------0-----0h1---0h1--------------|
|--0--2--4-----------4--2--0--2-----2-------------0-----------|
|-------------------------------------------------------------|
|-------------------------------------------------------------|

|----2p0-------------------0-|-----------------------------0--|
|---------1-------------0----|---------------------------0----|
|------------0h1-----1-------|----1-------0h1-----0h1---------|
|-----------------------0----|-------0h2---------------0------|
|-----------------0----------|-0---------------0--------------|
|-0--------------------------|--------------------------------|

|---------------------------|---------------------------------|
|------------------------0--|---------------------------------|
|-----1-----0h1-----0h1-----|-----------1--3--1---------------|
|--------2---------------0--|--0--2--4-----------4--2--0--2---|
|--0-------------0----------|---------------------------------|
|---------------------------|---------------------------------|

|--------------------------0--|-----2p0-------------------0---|
|------------------------0----|----------1-------------0------|
|---0-----0h1-----0h1---------|-------------0h1-----1---------|
|------2---------------0------|------------------------0------|
|--------------0--------------|------------------0------------|
|-----------------------------|--0----------------------------|

|-----0-----0--2--2p0--------|-----2p0-----0-----2p0----------|
|--------2-------------0-----|----------2-------------0-------|
|-------------------------1--|---------------------------1----|
|----------------------------|--------------------------------|
|--0-------------------------|--0-------------0---------------|
|----------------------------|--------------------------------|

|-----2p0-----0---2p0-------|---2p0------------------------0--|
|----------2-----------1----|--------1---------------0--------|
|-------------------------0-|-----------0h1-----0h1-----0-----|
|---------------------------|------------------------0--------|
|---------------------------|----------------0----------------|
|--0------------0-----------|-0-------------------------------|

|-----2p0-------------------0--|-----2p0----------------------|
|----------1-------------0-----|----------1-------------------|
|-------------0h1-----1--------|-------------0----------------|
|------------------------0-----|------------------------------|
|------------------0-----------|------------------------------|
|--0---------------------------|--0---------------------------|

|-----------------------------|----------------------------0--|
|-----------------------------|----------------------0--------|
|-----1-----0h1-----1-----0h1-|-----1-----0h1-----1-----1-----|
|--------2-------------2------|--------2-------------0--------|
|--0-------------0------------|--0-------------0--------------|
|-----------------------------|-------------------------------|

|--4--2--0-----0-------|-----------------------------------0--|
|-----------------1----|--------------0h1-------------0-------|
|--------------------0-|---------0h1-------0h1-----1-----1----|
|----------------------|----0h2-----------------------0-------|
|----------------------|-0----------------------0-------------|
|-----------0----------|--------------------------------------|

|---2p0----------------------0--|-----------------------------|
|--------1-------------0--------|-----------------------------|
|-----------0h1-----1-----1-----|-----1-----0h1-----1-----0h1-|
|----------------------0--------|--------2-------------2------|
|----------------0--------------|--0-------------0------------|
|-0-----------------------------|-----------------------------|

|------------------------------0--|----4--2--0-----2p0--------|
|------------------------0--------|---------------------1-----|
|-----1-------0h1-----1-----1-----|------------------------0--|
|--------0h2-------------0--------|---------------------------|
|--0---------------0--------------|---------------------------|
|---------------------------------|-0-----------0-------------|

|---------------------------------------0-|-----2p0-----------|
|---------------0h1------------------0----|----------1--------|
|----------0h1-------0h1-----0h1----------|-------------0h1---|
|-----0h2-------------------------0-------|-------------------|
|--0----------------------0---------------|-------------------|
|-----------------------------------------|--0----------------|

|--------------------------------|------------------|
|--------------------------------|------------------|
|*-----1--1----------------------|------------------|
|*-----------0--------0-----2p0--|--------0-----0---|
|---0-----------0--4-----4-------|--0--4-----4------|
|--------------------------------|------------------|

|-----------------|---------------|--0----0-------------------|
|-----------------|---------------|---------------------------|
|-----------------|---------------|--5h6--2h3-----------------|
|-------0-----2p0-|-------0-----0-|------------2h4--2p0--0--0-|
|-0--4-----4------|-0--4-----4----|---------------------------|
|-----------------|---------------|---------------------------|

|---------------------------------|---------------------------|
|---------------------------------|---------------------------|
|---------------------------------|--------------------------*|
|------------4h5--4h5----------0--|------------4h5--0-----0--*|
|--6h7--4h5------------0--4h5-----|--6h7--4h5----------4------|
|---------------------------------|---------------------------|

|------------------(12)---|
|------------(12)---------|
|------(12)---------------|
|-------------------------|
|---0---------------------|
|-------------------------|

James Calton, Sheffield, England, 2004.

________________________________________________________________________________
     
Добавлено: 09.07.2013
Другие материалы по этой песне:
  • Аккорды и текст

Страница создана 09.07.2013
http://primanota.ru/kaapana-ledward/whee-ha-swing-chords.htm
Привет, Гость.
Предлагаем пройти революционный курс по гитаре.
Подарок от PrimaNota.Ru, забирай!