PrimaNota.ru - самый крупный в мире бесплатный архив песенных текстов, аккордов, табулатур и нот


K2s - After The Rain - таба, видео

Регистрация Запомнить меня
Войти через:  Facebook Google Twitter Vk Yandex Mail.ru

K2s - After The Rain - таба, видео

Печатать
Просмотров: 123
		   Tablature for K2S's "After the Rain"
Tabbed by Mitchell Canter    mailto:mcanter@iolky.com>>>

E------------------------------------------------------------
B-3---3---1-----1----0----0----3-----3---1----1---0----0------
G--0-------0----------0---------0---------0--------0---------
D---2---2---2-----2----2---2-----2---2-----2---2----2---2---
A------------------------------------------------------------
E------------------------------------------------------------

E----------------
B--3------3----1-
G----0-----------
D------2----2----
A----------------
E----------------

That's it.  I mean it.  That's the whole riff in the song--over and over

     
Добавлено: 01.07.2013
Другие материалы по этой песне:
  • Аккорды и текст

Страница создана 01.07.2013
http://primanota.ru/k2s/after-the-rain-chords.htm
Привет, Гость.
Предлагаем пройти революционный курс по гитаре.
Подарок от PrimaNota.Ru, забирай!