PrimaNota.ru - самый крупный в мире бесплатный архив песенных текстов, аккордов, табулатур и нот


K2 - 1-moment - таба, видео

Регистрация Запомнить меня
Войти через:  Facebook Google Twitter Vk Yandex Mail.ru

K2 - 1-moment - таба, видео

Печатать
Просмотров: 73
-------------------------------------------------------------------------------
                             1 Moment - K2 feat Buka
-------------------------------------------------------------------------------
Tabbed by:Prendki
E-mail:mati9622@gmail.com

Tuning:Standard

****************************
Intro
****************************
e|----2-------------2-------|
B|----3-----12------3-----3-|
G|----------12----2-------3-|
D|--4-----12----0-------3---|
A|2-----10------------0-----|
E|--------------------------|x4

****************************
Song
****************************

e|----2--------------2-------|
B|----3------3-------3-----3-|
G|-----------0-----2-------3-|
D|--4------0-----0-------3---|
A|2--------------------0-----|
E|-------3-------------------|x4

****************************
Chord
****************************

               h-moll       G-durr
W poszukiwaniu szczęścia (szczęścia)
               D-Durr       A-Durr
W poszukiwaniu szczęścia tu
               h-moll
W poszukiwaniu szczęścia

             G-durr 
Przemierzamy cały świat,
             D-Durr
Przemierzamy wszechświat,
             A-Durr                     h-moll
Dobijamy się do bram i tam, oczekujemy wejścia.
         G-Durr            D-Durr
Cały ten świat jest u stóp nam,
                A-Durr                  h-moll
Cały świat jest u stóp, bracie, siostro ma.


itd...

****************************
Bicie|Hiting
****************************
↓ ↓↑↓↑
Or
↓  ↓ ↓↑
******************************
Leave Comment|Zostaw komentarz
******************************

| /   slide up
| \   slide down
| h   hammer-on
| p   pull-off
| ~   vibrato
| +   harmonic
| x   Mute note
| b   Bend
| pb  Pre-bend
| br  Bend release
| pbr Pre-bend release
| brb Bend release bend

************************************
Добавлено: 30.12.2015
Вам также может быть интересно:
Другие материалы по этой песне:
  • Аккорды и текст

Страница создана 30.12.2015
http://primanota.ru/k2/1-moment-chords.htm
Привет, Гость.
Предлагаем пройти революционный курс по гитаре.
Подарок от PrimaNota.Ru, забирай!