PrimaNota.ru - самый крупный в мире бесплатный архив песенных текстов, аккордов, табулатур и нот


K-ci Jojo - Now And Forever - таба, видео

Регистрация Запомнить меня
Войти через:  Facebook Google Twitter Vk Yandex Mail.ru

K-ci Jojo - Now And Forever - таба, видео

Печатать
Просмотров: 59
-------------------------------------------------------------------------------
                             Now & Forever-K-CI & Jojo
-------------------------------------------------------------------------------
Tabbed by:Jeff Kamungu
Email:geoffykom@yahoo.com

Tuning:Standard

Intro: Dm7              C            Am7              G           Dm7
e|--1----------|--0-------------|--0----------|------------|--1---------------|
B|-----1-------|------1---------|-----1-------|--0---------|-----1------------|
G|--------2----|-----------0----|---------0---|------0-----|---------2--------|
D|--0----------|----------------|-------------|----------0-|--0---------------|
A|-------------|--3-------------|--0----------|------------|------------------|
E|-------------|----------------|-------------|--3---------|------------------|
        C               Am7:G(onB)           Dm7             C
e|--0-----------|----------------------|--1----------|--0---------------------|
B|-----1--------|--1--------3--1h3-----|-----1-------|-----1------------------|
G|---------0----|-------------------0--|--------2----|---------0--------------|
D|--------------|----------------------|--0----------|------------------------|
A|--3-----------|--0--------2----------|-------------|--3---------------------|
E|--------------|----------------------|-------------|------------------------|
       Am7            G            F         Em          F(on G)
e|--0-----------|------------|------------|-----------|--1-------------------|
B|-----1--------|--0---------|------------|-----------|--1-------------------|
G|--------0-----|-----0------|--1---------|--0--------|--2-------------------|
D|--------------|------------|-----3------|------2----|--3-------------------|
A|--0-----------|------------|--------3---|-----------|----------------------|
E|--------------|--3---------|--1---------|--0--------|--3-------------------|
 Main Body:
      Dm7              C            Am7              G           Dm7
e|--1----------|--0-------------|--0----------|------------|--1---------------|
B|-----1-------|------1---------|-----1-------|--0---------|-----1------------|
G|--------2----|-----------0----|---------0---|------0-----|---------2--------|
D|--0----------|----------------|-------------|----------0-|--0---------------|
A|-------------|--3-------------|--0----------|------------|------------------|
E|-------------|----------------|-------------|--3---------|------------------|


        C               Am7:G(onB)           Dm7             C
e|--0-----------|-----------------(0)--|--1----------|--0---------------------|
B|-----1--------|--1--------3----------|-----1-------|-----1------------------|
G|---------0----|----------------------|--------2----|---------0--------------|
D|--------------|----------------------|--0----------|------------------------|
A|--3-----------|--0--------2-----(3)--|-------------|--3---------------------|
E|--------------|----------------------|-------------|------------------------|
      Am7              G           Dm7          C             Am7:G(onB)
e|--0-----------|--------------|--1---------|--0----------|------------------|
B|-----1--------|--0-----------|-----1------|-----1-------|--1----3----------|
G|--------0-----|-------0------|--------2---|---------0---|------------------|
D|--------------|--------------|--0---------|-------------|------------------|
A|--0-----------|--------------|------------|--3----------|--0----2----------|
E|--------------|--3-----------|------------|-------------|------------------|
Pre Chorus
      Dm7            Am7           Em7             Fmaj7|
e|--1--------1--|---------------|-------------|------------------------------|
B|--1--------1--|--1---------1--|--0-------0--|--2------2----(0)-------------|
G|--2--------2--|--0---------0--|--0-------0--|--2------2----(0)-------------|
D|--0--------0--|--2---------2--|--0-------0--|--3------3----(0)-------------|
A|--------------|--0---------0--|-------------|------------------------------|
E|--------------|---------------|--0-------0--|--1------1----(0)-------------|
       Dm7            Am7            Bbmaj7      F(on G)
e|--1--------1--|---------------|-------------|--1---------------------------|
B|--1--------1--|--1----------1-|--3-------3--|--1---------------------------|
G|--2--------2--|--0----------0-|--2-------2--|--2---------------------------|
D|--0--------0--|--2----------2-|--3-------3--|--3---------------------------|
A|--------------|--0----------0-|--1-------1--|------------------------------|
E|--------------|---------------|-------------|--3---------------------------|
Chorus:
      Dm7             C             Am7             G            Dm7
e|--1----------|--0-------------|--0----------|------------|--1---------------|
B|-----1-------|------1---------|-----1-------|--0---------|-----1------------|
G|--------2----|-----------0----|---------0---|------0-----|---------2--------|
D|--0----------|----------------|-------------|----------0-|--0---------------|
A|-------------|--3-------------|--0----------|------------|------------------|
E|-------------|----------------|-------------|--3---------|------------------|
        C               Am7:G(onB)           Dm7             C
e|--0-----------|----------------------|--1----------|--0---------------------|
B|-----1--------|--1--------3--1h3-----|-----1-------|-----1------------------|
G|---------0----|-------------------0--|--------2----|---------0--------------|
D|--------------|----------------------|--0----------|------------------------|
A|--3-----------|--0--------2----------|-------------|--3---------------------|
E|--------------|----------------------|-------------|------------------------|


       Am7            G            F         Em          F(on G)
e|--0-----------|------------|------------|-----------|--1-------------------|
B|-----1--------|--0---------|------------|-----------|--1-------------------|
G|--------0-----|-----0------|--1---------|--0--------|--2-------------------|
D|--------------|------------|-----3------|------2----|--3-------------------|
A|--0-----------|------------|--------3---|-----------|----------------------|
E|--------------|--3---------|--1---------|--0--------|--3-------------------|
Bridge: Em7,Dm7,Em7,Dm7,Fmaj7,Em7,Dm7,Bbmaj,G  Back to chorus as above.

e|---------------------------------------------------------------------------
| /  slide up
| \  slide down
| h  hammer-on
| p  pull-off
| ~  vibrato
| +  harmonic
| x  Mute note
===============================================================================
Добавлено: 25.04.2016
Другие материалы по этой песне:
  • Аккорды и текст

Страница создана 25.04.2016
http://primanota.ru/k-ci-jojo-2/now-and-forever-chords.htm
Привет, Гость.
Предлагаем пройти революционный курс по гитаре.
Подарок от PrimaNota.Ru, забирай!