PrimaNota.ru - самый крупный в мире бесплатный архив песенных текстов, аккордов, табулатур и нот


jyongri - Lullaby For You - бас-таба, видео

Регистрация Запомнить меня
Войти через:  Facebook Google Twitter Vk Yandex Mail.ru

jyongri - Lullaby For You - бас-таба, видео

Печатать
Просмотров: 891
Уроки эстрадного вокала в Санкт-Петербурге
Jyongri - Lullaby for You

Tabbed by: Ashy (XxThreeCheersxX)
E-mail: burdickash@gmail.com

Tuning: Standard

This is song appeared on the video game TWEWY.  Happy playing!

Note: I use the english lyrics here for simplicity's sake

Come in during the second half of the first verse
G|-------------------------------------------------------------------------------------------|
D|-------------------------------------------------------------------------------------------|
A|---------------------2~------------2----\0~------------0--2~---------4--6--6~--------4--6--|
E|-3~------------3--5------------------------------------------------------------------------|

G|----------------------------------------------------------------------------|
D|------------------------------------5---------------------------------------|
A|-7~----------------6~------------6-----5~------------5----3~-----------2----|
E|----------------------------------------------------------------------------|

G|--------------------------------------------|
D|--------------------------------------------|
A|-0~------------7----5~----------------------|
E|------------------------------0------2------|

Chorus
G|-----------------------------------------------------------------------------|
D|---------------------------------4--2~----------2----------------------------|
A|--------------------2~--------5----------------------5----5~--------5--3--2--|
E|-3~-----------3--5-----------------------------------------------------------|

G|-----------------------------------------------------------|
D|-----------------------------------------------------------|
A|-----------------------------------------------------------|
E|-5~------------4~------------5~------------7~--------7--5--|

G|-----------------------------------------------------------------------------|
D|---------------------------------4--2~----------2----------------------------|
A|--------------------2~--------5----------------------5----5~--------5--3--2--|
E|-3~-----------3--5-----------------------------------------------------------|

G|-----------------------------------------------------------|
D|-----------------------------------------------------------|
A|----------------------------------------7----5~------------|
E|-5~------------4~------------5~----------------------------|

"Even on cloudy days"
G|---------------------------------------------------------|
D|---------------------------------------------------------|
A|-7~------------3~----------------------------------------|
E|-----------------------------3~----------------2~--------|

"you are not alone"
G|---------------------------------------------------------|
D|---------------------------------------------------------|
A|---------------3~----------------------------------------|
E|-0~--------------------------3~--------------------------|

Pre-Verse
G|----------------------------------------------------------------------------------------|
D|--------------------------------------2--4--2-------------------------------------------|
A|---------------------2~------------2-----------2--0~------------5~----------------------|
E|-3~------------3--5-----------------------------------------------------------0----2----|

Verse

Chorus 

Bridge
G|--------------------------------------------------------------------------------------|
D|-5--4--2~------------2--4--2--1~------------1--2--1--0~--------------2----------------|
A|------------------------------------------------------------------------4~------------|
E|--------------------------------------------------------------------------------------|

G|---------------------------------------------------------------------------|
D|---------------------------------------------------------------------------|
A|-0~--------0--0~--------7--5~----------------------------------------------|
E|---------------------------------------------------------------------------|

Final Chorus 
G|-----------------------------------------------------------------------------|
D|---------------------------------4--2~----------2----------------------------|
A|--------------------2~--------5----------------------5----5~--------5--3--2--|
E|-3~-----------3--5-----------------------------------------------------------|

G|-----------------------------------------------------------|
D|-----------------------------------------------------------|
A|----------------------------------------7----5~------------|
E|-5~------------4~------------5~----------------------------|

"Even through cloudy days"
G|---------------------------------------------------------|
D|---------------------------------------------------------|
A|-7~------------3~----------------------------------------|
E|-----------------------------3~----------------2~--------|

"you are not alone"
G|---------------------------------------------------------|
D|---------------------------------------------------------|
A|---------------3~----------------------------------------|
E|-0~--------------------------3~--------------------------|

Outro                                                                         (slow down here)
G|---------------------------------------------------------------------------------------------------------|
D|--------------------------------------2--4--2------------------------------------------------------------|
A|---------------------2~------------2-----------2--0~------------5~---------------------------------------|
E|-3~------------3--5-----------------------------------------------------------0----2----3~---------------|



| /  slide up
| \  slide down
| h  hammer-on
| p  pull-off
| ~  vibrato
| +  harmonic
| x  Mute note
===============================================================================
Добавлено: 28.06.2016
Другие материалы по этой песне:
  • Аккорды и текст

Страница создана 28.06.2016
http://primanota.ru/jyongri/lullaby-for-you-chords.htm
Привет, Гость.
Предлагаем пройти революционный курс по гитаре.
Подарок от PrimaNota.Ru, забирай!