PrimaNota.ru - самый крупный в мире бесплатный архив песенных текстов, аккордов, табулатур и нот


Juzzie Smith - La La - таба, видео

Регистрация Запомнить меня
Войти через:  Facebook Google Twitter Vk Yandex Mail.ru

Juzzie Smith - La La - таба, видео

Печатать
Просмотров: 45
Уроки эстрадного вокала в Санкт-Петербурге
-------------------------------------------------------------------------------
                           La la  - Juzzie Smith
-------------------------------------------------------------------------------
Tabbed by: Eduardo Morales
E-mail: eduardomoralesjt@hotmail.com

Tuning: Estándar

Part: 1 (Intro)
Repetir: 2 veces

e|------ 3------3----3---------0-----0---0---------0------0---0--------0------0---0-----|
B|-----3------3----3---------1----1----0---------0----0-----0--------1-----1----0-------|
G|--------------------------------------------------------------------------------------|
D|---------0-------------------- 2-------------------0-------------------2--------------|
A|---------------------------3-------------------0-------------------3------------------|
E|-----3--------------------------------------------------------------------------------|

Repetir: 2 veces

e|-------3-------5--3----------0-------3--0--------0----------0---------0------0---0----|
B|-----3----3----------------1----1--------------0-----0---3b---------1----1-----0------|
G|--------------------------------------------------------------------------------------|
D|---------0---------------------2-------------------0------------------ 2--------------|
A|---------------------------3-------------------0--------------------3-----------------|
E|-----3--------------------------------------------------------------------------------|

And continue

e|------ 3------3----3---------0-----0---0---------0------0---0--------0------0---0-----|
B|-----3------3----3---------1----1----0---------0----0-----0--------1-----1----0-------|
G|--------------------------------------------------------------------------------------|
D|---------0-------------------- 2-------------------0-------------------2--------------|
A|---------------------------3-------------------0-------------------3------------------|
E|-----3--------------------------------------------------------------------------------|



e|-------3-------5--3----------0-------3--0--------0----------0---------0------0---0----|
B|-----3----3----------------1----1--------------0-----0---3b---------1----1-----0------|
G|--------------------------------------------------------------------------------------|
D|---------0---------------------2-------------------0------------------ 2--------------|
A|---------------------------3-------------------0--------------------3-----------------|
E|-----3--------------------------------------------------------------------------------|



| b   Bend

https://www.youtube.com/watch?v=y7jhru6fgSo
Добавлено: 29.12.2015
Вам также может быть интересно:
Другие материалы по этой песне:
  • Аккорды и текст

Страница создана 29.12.2015
http://primanota.ru/juzzie-smith/la-la-chords.htm
Привет, Гость.
Предлагаем пройти революционный курс по гитаре.
Подарок от PrimaNota.Ru, забирай!