PrimaNota.ru - самый крупный в мире бесплатный архив песенных текстов, аккордов, табулатур и нот


Justine - Une Ode A La Mort - бас-таба, видео

Регистрация Запомнить меня
Войти через:  Facebook Google Twitter Vk Yandex Mail.ru

Justine - Une Ode A La Mort - бас-таба, видео

Печатать
Просмотров: 70
-------------------------------------------------------------------------------
                             Une Ôde à la Mort - Justin(e)
-------------------------------------------------------------------------------
Tabbed by: HappyGrouch (https://www.youtube.com/channel/UCtI6cIlHd69MnIudzBTm-9Q)
https://www.facebook.com/Johnny-Stinks-1556253181327774/


My cover: https://www.youtube.com/watch?v=ax0EJVwHQj4

Tuning: Standard EADG

Intro (0:09) "À nos pères en sursis...." 
G|---------------------------------------------------------------------------|
D|-----------------------------2-/3-------------5----------------------------| 
A|/5----------------------------------------------3----------------3---------|
E|-----------------------------------------------------------5-3-5-----------|


Couplet 1 (0:19) "À la fin qui insiste...." 
G|---------------------------------------------------------------------------|
D|-------------------------------2-3-3-2-0-2-2-3-5-7-8-7-5-7-5-3-2-----------|
A|-5-5-3-0-3-3-5-3-5-5-3-0-3-3-5---------------------------------------------|
E|---------------------------------------------------------------------------|

G|---------------------------------------------------------------------------|
D|-------------------------------2-3-3-2-0-2-2-3-5-7-8-7-5-7-10-7-5----------|
A|-5-5-3-0-3-3-5-3-5-5-3-0-3-3-5---------------------------------------------|
E|---------------------------------------------------------------------------|


Refrain 1 (0:37) "Du détroit de Messine...." 
G|---------------------------------------------------------------------------|
D|---------------------------------------------------------------------------|
A|-8-8-8-8-8-8-8-8-0-0-0-0-0-0-3-3-5-5-3-0-3-3-5-3-5-5-3-0-3-3-5-3-----------|
E|---------------------------------------------------------------------------|

G|---------------------------------------------------------------------------|
D|---------------------------------------------------------------------------|
A|---------------------------------------------------------------------------|
E|-1-1-1-1-1-1-1-1-5-6-5-3-5-3-1-0-------------------------------------------|


Couplet 2 (0:51) "À ces dieux, aux damnés...." 
G|---------------------------------------------------------------------------|
D|-------------------------------2-3-3-2-0-2-2-3-5-7-8-7-5-7-5-3-2-----------|
A|-5-5-3-0-3-3-5-3-5-5-3-0-3-3-5---------------------------------------------|
E|---------------------------------------------------------------------------|

G|---------------------------------------------------------------------------|
D|-------------------------------2-3-3-2-0-2-2-3-5-7-8-7-5-7-10-7-5----------|
A|-5-5-3-0-3-3-5-3-5-5-3-0-3-3-5---------------------------------------------|
E|---------------------------------------------------------------------------|


Refrain 2 (1:10) "Du détroit de Messine...." 
G|---------------------------------------------------------------------------|
D|---------------------------------------------------------------------------|
A|-8-8-8-8-8-8-8-8-0-0-0-0-0-0-3-3-5-5-3-0-3-3-5-3-3-3-----------------------|
E|-----------------------------------------------------5-5-3-5-3-0-----------|

G|---------------------------------------------------------------------------|
D|---------------------------------------------------------------------------|
A|---------------------------------------------------------------------------|
E|-1-1-1-1-1-1-1-1-5-6-5-3-5-3-1-0-------------------------------------------|


Pont (1:23)
G|-7---5-7---5-10-10-9-7-9-10-12-14-15-14-12-14-12-10-9-7--------------------|
D|-0-7-----7-----------------------------------------------------------------|
A|---------------------------------------------------------------------------|
E|---------------------------------------------------------------------------|

G|---5-7---5-10-10-9-7-9-10-12-14-15-14-12-14-12-10-9-7--7--7----7-----------|
D|-7-----7-----------------------------------------------------5-------------|
A|---------------------------------------------------------------------------|
E|---------------------------------------------------------------------------|


Refrain 3 (1:42) "Du détroit de Messine...." 
G|---------------------------------------------------------------------------|
D|---------------------------------------------------------------------------|
A|-5-5-5-5-5-5-5-5-----------------3-3-3-3-3-3-3-3---------------------------|
E|-----------------1-1-1-1-1-1-1-1-------------------3-3-3-3-3-3-3-3---------|

G|---------------------------------------------------------------------------|
D|---------------------------------------------------5-5-5-5-5-5-5-5---------|
A|-5-5-5-5-5-5-5-5-----------------3-3-3-3-3-3-3-3---------------------------|
E|-----------------1-1-1-1-1-1-1-1-------------------------------------------|

G|---------------------------------------------------------------------------|
D|---------------2-3-3-2-0-2-2-3-2---------------3-5-5-3---3-3-5-3-----------|
A|-5-5-3-0-3-3-5-------------------3-3---------3---------5-------------------|
E|-------------------------------------5-3-5-5-------------------------------|

G|---------------------------------------------------------------------------|
D|---------------2-3-3-2-0-2-2-3-2---------------3-5-5-3---3-3-5-3-----------|
A|-5-5-3-0-3-3-5-------------------3-3---------3---------5-------------------|
E|-------------------------------------5-3-5-5-------------------------------|


Fin (2:19)
G|---------------------------------------------------------------------------|
D|---------------------------------------------------------------------------|
A|-5-------------------------------------------------------------------------|
E|---------------------------------------------------------------------------|


| /  slide up
| \  slide down
| h  hammer-on
| p  pull-off
| ~  vibrato
| +  harmonic
| x  Mute note
===============================================================================
Добавлено: 05.06.2016
Вам также может быть интересно:
Другие материалы по этой песне:
  • Аккорды и текст

Страница создана 05.06.2016
http://primanota.ru/justine/une-ode-a-la-mort-chords.htm
Привет, Гость.
Предлагаем пройти революционный курс по гитаре.
Подарок от PrimaNota.Ru, забирай!