PrimaNota.ru - самый крупный в мире бесплатный архив песенных текстов, аккордов, табулатур и нот


Justine - On Nest Pas Sérieux - бас-таба, видео

Регистрация Запомнить меня
Войти через:  Facebook Google Twitter Vk Yandex Mail.ru

Justine - On Nest Pas Sérieux - бас-таба, видео

Печатать
Просмотров: 61
-------------------------------------------------------------------------------
                             On n'est pas sérieux - Justin(e)
-------------------------------------------------------------------------------
Tabbed by: HappyGrouch (https://www.youtube.com/channel/UCtI6cIlHd69MnIudzBTm-9Q)
https://www.facebook.com/Johnny-Stinks-1556253181327774/


Tuning: Standard EADG


Intro (0:02)
G|---------------------------------------------------------------------------|
D|---------------------------------------------------------------------------|
A|---------5-555555--------4-444444------------------------------------------|
E|-5-555555--------2-222222--------------------------------------------------|

G|---------------------------------------------------------------------------|
D|---------------------------------------------------------------------------|
A|---------5-555555--------4-444444------------------------------------------|
E|-5-555555--------2-222222--------------------------------------------------|


Couplet 1 (0:10)
G|---------------------------------------------------------------------------|
D|---------------------------------------------------------------------------|
A|---------5---------------24-2-0--------------------------------------------|
E|-5---------------2------2--------------------------------------------------|

G|---------------------------------------------------------------------------|
D|---------------------------------------------------------------------------|
A|---------5---------------24-5-7--------------------------------------------|
E|-5---------------2------2--------------------------------------------------|

G|---------------------------------------------------------------------------|
D|---------------------------------------------------------------------------|
A|-------4455442200----2422--------------------------------------------------|
E|-5-5555----------2-22----0-002244------------------------------------------|

G|---------------------------------------------------------------------------|
D|---------------------------------------------------------------------------|
A|-------4455442200----2422--------------------------------------------------|
E|-5-5555----------2-22----0-002244------------------------------------------|


Pré-refrain 1 (0:27)
G|-------------7-77-6-------------7-77-9-------------------------------------|
D|-7-7-7-77-7---------7-7-7-77-7---------------------------------------------|
A|-----------5------------------5-----------------444-5-5-7------------------|
E|----------------------------------------2-22-222---------------------------|

G|-------------7-77-6-------------7-77-9-------------------------------------|
D|-7-7-7-77-7---------7-7-7-77-7---------------------------------------------|
A|-----------5------------------5------------------4-44-444-4----------------|
E|-----------------------------------------2-22-222--------------------------|


Refrain 1 (0:42)
G|---------------------------------------------------------------------------|
D|---------------------------------------------------------------------------|
A|----------5-555555----------4-442200---------------------------------------|
E|-2-222222----------5-555555------------------------------------------------|

G|---------------------------------------------------------------------------|
D|---------------------------------------------------------------------------|
A|----------5-555555------------4-----4--------------------------------------|
E|-2-222222----------5-555555------------------------------------------------|

G|---------------------------------------------------------------------------|
D|---------------------------------------------------------------------------|
A|----------5-555555----------4-442200---------------------------------------|
E|-2-222222----------5-555555------------------------------------------------|

G|---------------------------------------------------------------------------|
D|---------------------------------------------------------------------------|
A|----------5----------------------------------------------------------------|
E|-2-222222------------------------------------------------------------------|


Intro 2 (0:57)
G|---------------------------------------------------------------------------|
D|---------------------------------------------------------------------------|
A|---------5-555555--------4-444444------------------------------------------|
E|-5-555555--------2-222222--------------------------------------------------|

G|---------------------------------------------------------------------------|
D|---------------------------------------------------------------------------|
A|---------5-555555--------4-444444------------------------------------------|
E|-5-555555--------2-222222--------------------------------------------------|


Couplet 2 (1:06)
G|---------------------------------------------------------------------------|
D|---------4-----------------------------------------------------------------|
A|-0-4-0-5----0---0-2-4-2-0--------------------------------------------------|
E|--------------2------------------------------------------------------------|

G|---------------------------------------------------------------------------|
D|---------4-----------------------------------------------------------------|
A|-0-4-0-5----0---0-2-4-5-7--------------------------------------------------|
E|--------------2------------------------------------------------------------|

G|---------------------------------------------------------------------------|
D|---------------------------------------------------------------------------|
A|-------4455442200----2422--------------------------------------------------|
E|-5-5555----------2-22----0-002244------------------------------------------|

G|---------------------------------------------------------------------------|
D|---------------------------------------------------------------------------|
A|-------4455442200----2422--------------------------------------------------|
E|-5-5555----------2-22----0-002244------------------------------------------|


Pré-refrain 2 (1:23)
G|-------------7-77-6-------------7-77-9-------------------------------------|
D|-7-7-7-77-7---------7-7-7-77-7---------------------------------------------|
A|-----------5------------------5-----------------444-5-5-7------------------|
E|----------------------------------------2-22-222---------------------------|

G|-------------7-77-6-------------7-77-9-------------------------------------|
D|-7-7-7-77-7---------7-7-7-77-7---------------------------------------------|
A|-----------5------------------5------------------4-44-444-4----------------|
E|-----------------------------------------2-22-222--------------------------|


Refrain 2 (1:36)
G|---------------------------------------------------------------------------|
D|---------------------------------------------------------------------------|
A|----------5-555555----------4-442200---------------------------------------|
E|-2-222222----------5-555555------------------------------------------------|

G|---------------------------------------------------------------------------|
D|---------------------------------------------------------------------------|
A|----------5-555555------------4-----4--------------------------------------|
E|-2-222222----------5-555555------------------------------------------------|

G|---------------------------------------------------------------------------|
D|---------------------------------------------------------------------------|
A|----------5-555555----------4-442200---------------------------------------|
E|-2-222222----------5-555555------------------------------------------------|

G|---------------------------------------------------------------------------|
D|---------------------------------------------------------------------------|
A|----------5----------------------------------------------------------------|
E|-2-222222------------------------------------------------------------------|


Pont (1:53)
G|---------------------------------------------------------------------------|
D|---------------------------------------------------------------------------|
A|-0-------------------------------------------------------------------------|
E|---------------------------------------------------------------------------|

                                11=>onze 12=>douze 14=>quatorze
G|---------------------------------------------------------------------------|
D|-11-12-14-12-11------------------------------------------------------------|
A|----------------12---------------------------------------------------------| x8
E|---------------------------------------------------------------------------|


Refrain 3 (2:14)
G|---------------------------------------------------------------------------|
D|---------------------------------------------------------------------------|
A|---------5-555555--------4-444444------------------------------------------|
E|-5-555555--------2-222222--------------------------------------------------|

G|---------------------------------------------------------------------------|
D|---------------------------------------------------------------------------|
A|---------5-555555--------4-444444------------------------------------------|
E|-5-555555--------2-222222--------------------------------------------------|

G|---------------------------------------------------------------------------|
D|---------------------------------------------------------------------------|
A|---------5-555555--------4-444444------------------------------------------|
E|-5-555555--------2-222222--------------------------------------------------|

G|---------------------------------------------------------------------------|
D|---------------------------------------------------------------------------|
A|---------5-555555--------4-444444------------------------------------------|
E|-5-555555--------2-222222--------------------------------------------------|


Outro (2:32)
G|---------------------------------------------------------------------------|
D|---------------------------------------------------------------------------|
A|-0-------------------------------------------------------------------------|
E|---------------------------------------------------------------------------|

| /  slide up
| \  slide down
| h  hammer-on
| p  pull-off
| ~  vibrato
| +  harmonic
| x  Mute note
===============================================================================
Добавлено: 05.06.2016
Вам также может быть интересно:
Другие материалы по этой песне:
  • Аккорды и текст

Страница создана 05.06.2016
http://primanota.ru/justine/on-nest-pas-serieux-chords.htm
Привет, Гость.
Предлагаем пройти революционный курс по гитаре.
Подарок от PrimaNota.Ru, забирай!