PrimaNota.ru - самый крупный в мире бесплатный архив песенных текстов, аккордов, табулатур и нот


Justin Timberlake - Sexyback Live - таба, видео

Регистрация Запомнить меня
Войти через:  Facebook Google Twitter Vk Yandex Mail.ru

Justin Timberlake - Sexyback Live - таба, видео

Печатать
Просмотров: 222
-----------------------------------------------------------------
Sexyback(Live) - Justin Timberlake
-----------------------------------------------------------------

Tuning: Standard

This is tabbed from FutureSex/LoveShow, the HBO concert

Keep this part going, this is Timberlake's keyboard part on guitar

e|-----------------------------------------------------15-----17~|
B|------10-----11~------13-----15~------17-----18~---------------|
G|---------------------------------------------------------------|
D|---------------------------------------------------------------|
A|--0-0----0-0------0-0----0-0------0-0----0-0-----0-0----0-0----|
E|---------------------------------------------------------------|

After awhile the guitarists come in, make it heavy

e|---------------------------------------------------------------|
B|---------------------------------------------------------------|
G|-----2-----3~------5-----7~-------9-----10~------12-----14~----|
D|-----2-----3~------5-----7~-------9-----10~------12-----14~----|
A|-0-0-0-0-0-1~--0-0-3-0-0-5~---0-0-7-0-0-8~---0-0-10-0-0-12~----|
E|---------------------------------------------------------------|

The entire song is now this rhythm

e|---------------------------------------------------------------|
B|---------------------------------------------------------------|
G|-2---3-2---3-2-2-2--3--2---3-----------------------------------|
D|-2---3-2---3-2-2-2--3--2---3-----------------------------------|
A|-0---1-0---1-0-0-0--1--0---1-----------------------------------|
E|---------------------------------------------------------------|
Добавлено: 10.07.2012
Другие материалы по этой песне:
  • Аккорды и текст

Страница создана 10.07.2012
http://primanota.ru/justin-timberlake/sexyback-live-chords.htm
Привет, Гость.
Предлагаем пройти революционный курс по гитаре.
Подарок от PrimaNota.Ru, забирай!