PrimaNota.ru - самый крупный в мире бесплатный архив песенных текстов, аккордов, табулатур и нот


Justin Timberlake - Ankush Jain - Mirrors - таба, видео

Регистрация Запомнить меня
Войти через:  Facebook Google Twitter Vk Yandex Mail.ru

Justin Timberlake - Ankush Jain - Mirrors - таба, видео

Печатать
Просмотров: 326
                         Mirrors (Justin Timberlake)
                    (From the album THE 20/20 EXPERIENCE)

As performed by Ankush Jain on YouTube (http://www.youtube.com/watch?v=CJFeT2gEj2s)


Structure: PLEASE NOTE, PERFORMED ONE SEMITONE LOWER THAN ORIGINAL RECORDING
1. Intro
2. Verse 1
3. Pre Chorus 1
4. Chorus 1
5. Verse 2 (Improvise in B minor)
6. Pre Chorus 2 (An octave higher)
7. Chorus (An octave higher)
8. Outro (Solo - Improvise in B minor)


1. INTRO (0 to 0.24)
 Distorted Gtr 
E |------------------------------------------------|------------------------------------------------|
B |------------10-10-10-------------10-10-10-------|----------------8--8--8---7-7-7-7-7-7-7-7-7-7---|
G |-----7-7-7------------7-7-6-6-6------------6-6--|--------4--4--4---------------------------------|x4
D |------------------------------------------------|------------------------------------------------|
A |------------------------------------------------|------------------------------------------------|
E |------------------------------------------------|------------------------------------------------|


2. VERSE (0.24 to 0.49) - WHOLE SECTION WRITTEN REPEATED
E |------------------------------------------------|------------------------------------------------|
B |------------------------------------------------|------------------------------------------------|
G |-------------------------------------------6----|--7~-------------------7--6~--------------------|
D |-----------------------------------------9------|------------------------------------------------|
A |------------------------------------------------|--------9-----x-----9-----------9-7--------7----|
E |------------------------------------------------|--------------x------------------------------10-|
  |
E |------------------------------------------------------|------------------------------------------|
B |------------------------------------------------------|------------------------------------------|
G |--------------------------------------------------6---|--7~----------------7--6~-----------------|
D |--9~-------------------------9----9----9-9-9----9-----|------------------------------------------|
A |--------7----7-7-7----7-------------------------------|-------9----x----9-----------9-7------7---|
E |---------------------------10-------------------------|------------x----------------------10-----|
  |
E |--------------------------------------------------------------|
B |--------------------------------------------------------------|
G |----------------------------------------------------------6---|
D |--9---------------------------9-----9-----9----9----9---------|
A |------7----7-7-7----7-----------------------------------------|
E |------------------------10------------------------------------|


3. PRE CHORUS (0.49 to 1.00)
E |------------------------------------------------|------------------------------------------------|
B |------------------------------------------------|------------------------------------------------|
G |-----------------------------------------6--7---|--9-----9--7--9-----9--7--9-----9--7--9--11-----|
D |----------------------------------------9-------|------------------------------------------------|
A |------------------------------------------------|------------------------------------------------|
E |------------------------------------------------|------------------------------------------------|
  |
E |------------------------------------------------|------------------------------------------------|
B |------------------------------------------------|------------------------------------------------|
G |--9-----9-----10b9--7---------------------6--7--|--9-----9--7--9-----9--7--9-----9-----10-9--7---|
D |---------------------9--------------9--9--------|---------------------------------------------9--|
A |------------------------------------------------|------------------------------------------------|
E |------------------------------------------------|------------------------------------------------|
  |
E |----------------------------------------------------|
B |----------------------------------------------------|
G |-----------7--------------11-11-11-11-11----9-------|
D |--9-------------------------------------------------|
A |----------------------------------------------------|
E |----------------------------------------------------|


4. CHORUS (1.00 to 1.51)
E |------------------------------------------------|------------------------------------------------|
B |------------------------------------------------|------------------------------------------------|
G |--11-------9-----------9--11----11---11---11-11-|--9--9--------------------11-11-11-11-11-9------|
D |--------------------12--------------------------|--------------------------------------------12--|
A |------------------------------------------------|------------------------------------------------|
E |------------------------------------------------|------------------------------------------------|
  |
E |------------------------------------------------|------------------------------------------------|
B |------------------------------------------------|------------------------------------------------|
G |--12----11-------9-----9------------------------|--------------------------11-11-11-11-11-9---9--|
D |--------------------12-------------12-11--------|--9-----------------------------------------12--|
A |------------------------------------------------|-----------12-10--------------------------------|
E |------------------------------------------------|------------------------------------------------|
  |
E |------------------------------------------------|------------------------------------------------|
B |------------------------------------------------|------------------------------------------------|
G |--11----------------9-----9-------------9--11---|--12----11----9-----9-----9--------------11-9---|
D |-----------------------12-----------------------|-----------------12----12----12------------12---|
A |------------------------------------------------|------------------------------------------------|
E |------------------------------------------------|------------------------------------------------|
  |
E |------------------------------------------------|------------------------------------------------|
B |------------------------------------------------|------------------------------------------------|
G |--9-----11-------9-----9------------------------|--------------------------11-11-11-11-11-9---9--|
D |--------------------12-------------12-11--------|--9-----------------------------------------12--|
A |------------------------------------------------|-----------12-10--------------------------------|
E |------------------------------------------------|------------------------------------------------|
  |
E |------------------------------------------------|------------------------------------------------|
B |------------------------------------------------|------------------------------------------------|
G |--11------------------------11-11-11-11-11-11---|--11-9--9---------------------------11-11-11-11-|
D |------------------------------------------------|------------------------------------------------|
A |------------------------------------------------|------------------------------------------------|
E |------------------------------------------------|------------------------------------------------|
  |
E |------------------------------------------------|------------------------------------------------|
B |------------------------------------------------|------------------------------------------------|
G |--11-9-----9--11------------11-11-11-11-11-11---|--11-9--9-------------------------11-11-11-11---|
D |--------12--------------------------------------|------------------------------------------------|
A |------------------------------------------------|------------------------------------------------|
E |------------------------------------------------|------------------------------------------------|
  |
E |------------------------------------------------|------------------------------------------------|
B |------------------------------------------------|------------------------------------------------|
G |--11-9-----9--11----------------9-----9---------|--9--11-12----11----9-----9-----9----11-11-11---|
D |--------12-------------------------12-----------|-----------------------12----12----12-----------|
A |------------------------------------------------|------------------------------------------------|
E |------------------------------------------------|------------------------------------------------|
  |
E |------------------------------------------------|------------------------------------------------|
B |------------------------------------------------|------------------------------------------------|
G |--11-9-----9--11------------11-11-11-11-11-11---|--11-9--9-----------11-11-11-9--9---------------|
D |--------12--------------------------------------|------------------------------------------------|
A |------------------------------------------------|------------------------------------------------|
E |------------------------------------------------|------------------------------------------------|
Добавлено: 18.11.2013
Другие материалы по этой песне:
  • Аккорды и текст

Страница создана 18.11.2013
http://primanota.ru/justin-timberlake/ankush-jain-mirrors-chords.htm
Привет, Гость.
Предлагаем пройти революционный курс по гитаре.
Подарок от PrimaNota.Ru, забирай!