PrimaNota.ru - самый крупный в мире бесплатный архив песенных текстов, аккордов, табулатур и нот


Justin Nozuka - Hollow Men - таба, видео

Регистрация Запомнить меня
Войти через:  Facebook Google Twitter Vk Yandex Mail.ru

Justin Nozuka - Hollow Men - таба, видео

Печатать
Просмотров: 198
Justin Nozuka - Hollow Men Tab


Tuning: Half Step Down 


Chords

e|---3---3---0---2---3---7------------------------------------------------
b|---3---3---0---0---0---8------------------------------------------------
G|---5---4---2---2---0---9------------------------------------------------
D|---5---5---2---0---0---9------------------------------------------------
A|---3---3---0---2---3---7------------------------------------------------
E|---x---x---x---x---x---x------------------------------------------------



Intro/Verse x6 "I remember..."

e|------3----3----3----3-|-----3----3----3----3--------|
b|-----------------------|-----------------------------|
G|-----5----5----5----5--|----4----4----4----4---------|
D|----5----5----5----5---|---5----5----5----5----------|
A|---3----3----3----3----|--3----3----3----3-----------|
E|-----------------------|-----------------------------|

Bridge x2 "oh my lord..."

e|------------2-----3----3----3----3-------------------|
b|------0----0-----0----0----0----0--------------------|
G|-----2----2----0----0----0----0----------------------|
D|----2------------------------------------------------|
A|---0-----2----3----3----3----3-----------------------|
E|-----------------------------------------------------|

Chorus "take me over..."

e|------7---7-----2---2-----3----3----2----2-----------|
b|---------------0---0-----0----0----0----0------------|
G|-----9---9----2---2-----0----0----2----2-------------|
D|----9---9--------------------------------------------|
A|---7---7-----2---2-----3----3----2----2--------------|
E|-----------------------------------------------------| x2 then play Bridge 

Back to Intro/Verse x4
        Bridge x2  
        Chorus x2

Interlude x2 (Honestly I have no idea what he's saying at this part)

e|------7---7---7---7-----5---5---5---5-----3---3---3---3-----2---2---2---2-----|
b|-----------------------------------------0---0---0---0-----0---0---0---0------|
G|-----9---9---9---9-----7---7---7---7----0---0---0---0-----2---2---2---2-------|
D|----9---9---9---9-----7---7---7---7-------------------------------------------|
A|---7---7---7---7-----5---5---5---5-----3---3---3---3-----2---2---2---2--------|
E|------------------------------------------------------------------------------| 

Back to Chorus x1 


Full sequence is like:
Intro/Verse x6
Bridge x2
Chorus x2
Bridge x1
Intro/verse x4
Bridge x2
Chorus x2
Interlude x2
Chorus x1
          
Добавлено: 31.03.2012
Другие материалы по этой песне:
  • Аккорды и текст

Страница создана 31.03.2012
http://primanota.ru/justin-nozuka/hollow-men-chords.htm
Привет, Гость.
Предлагаем пройти революционный курс по гитаре.
Подарок от PrimaNota.Ru, забирай!